Ra

Ra - Sky guitar tab

-------------------------------------------------------------------------------

Sky - RA

-------------------------------------------------------------------------------

Tabbed by: SilentDeftone

Tuning: BEADGBe

~ = sustain note

(2) = optional note - it sounds good with or without it

x = muted string

p = pull off

h = hammer on

b = bend

r = return (unbend)

Intro:

e|----------------------------|

B|----------------------------|

G|o--------------------------o|

D|o--------------------------o|

A|--4~-4-4-4-4~-4-4-4-4-5-2~--|

E|----------------------------|

B|----------------------------|

PM: . . . . . . . . . . .

e|-- 0:42 ------------------------------------------------------------|

B|--------------------------------------------------------------------|

G|--------------------------------------------------------------------|

D|--------------------------------------------------------------------|

A|--4~-4-4-4-4~-4-4-4-4-5-2-2~-2-2-2-2~-2-2-2-2~-2~-x-x-x-2~-x-x-x-2~-|

E|--------------------------------------------------------------------|

B|--------------------------------------------------------------------|

PM: . . . . . . . . . . . . . . . . . . . .

Then it splits into 2 parts.

Clean/Acoustic plays:

e|-- 0:50 --0~---------0~---------0~--|

B|--------0----------0----------0-----|

G|o-----6----------9----------4------o|

D|o---6----------9----------4--------o|

A|--4----------7----------2-----------|

E|------------------------------------|

B|------------------------------------|

Distortion plays:

e|------------------------------------|-----|

B|------------------------------------|-----|

G|o-6~---------9~---------4~---------o|-4-4-|

D|o-6~---------9~---------4~---------o|-4-4-|

A|--4~---------7~---------2~----------|-2-2-|

E|------------------------------------|-----|

B|------------------------------------|-----|

Prechorus:

e|- 1:10 ---------------------|- 1:30 -| 1:40 |

B|----------------------------|--------|------|

G|o--------------------------o|--6~----|--9~--|

D|o--------------------------o|--6~----|--9~--|

A|--4~-4-4-4-4~-4-4-4-4-5-2~--|--4~----|--7~--|

E|--4~-4-4-4-4~-4-4-4-4-5-2~--|--------|------|

B|--2~-2-2-2-2~-2-2-2-2-3-0~--|--------|------|

PM: . . . . . . passing... man...

Chorus: (2 parts) 1:50

Clean/Acoustic:

e|--0~---0~---0~---|

B|--0~---0~---0~---|

G|o-6~---9~---4~--o|

D|o-6~---9~---4~--o|

A|--4~---7~---2~---|

E|-(4)--(7)--(2)---|

B|-----------------|

Distorted:

e|-----------------|

B|-----------------|

G|o-6~---9~---4~--o|

D|o-6~---9~---4~--o|

A|--4~---7~---2~---|

E|-(4)--(7)--(2)---|

B|-----------------|

Bridge: 2:30

e|-----------------------------------2-----2-----2--|

B|--------------------------------------------------|

G|o-------------------------------------------------|

D|o-------------------------------------------------|

A|--4-4-x-x---x-3-3-x-x---x-2-2--x-x---x-x---x-x----|

E|--4-4-x-x---x-3-3-x-x---x-2-2--x-x---x-x---x-x----|

B|--2-2-x-x---x-1-1-x-x---x-0-0--x-x---x-x---x-x----|

e|-------------------------------------------|

B|-------------------------------------------|

G|------------------------------------------o|

D|------------------------------------------o|

A|---4-4-x-x---x-3-3-x-x---x-2-2---2~-3~-4~--|

E|---4-4-x-x---x-3-3-x-x---x-2-2---2~-3~-4~--|

B|---2-2-x-x---x-1-1-x-x---x-0-0---0~-1~-2~--|

|-triplet-|

Solo: 2:50

e|---------------------------------------------------------------------|

B|---------------------------------------------------------------------|

G|---------------------------------------------------------------------|

D|----------------------------16-16~----19-18-16~----16-18~-16---------|

A|-16~~~-16-18-16~-18-19~~-19--------19-----------19-----------19-16~~-|

E|---------------------------------------------------------------------|

B|---------------------------------------------------------------------|

e|---------------------------------------------------------------|

B|----------------------------17-16-16~-16p14-16b17-17r16p14-16~-|

G|----16b18~-18~-18r16p14-16~------------------------------------|

D|-18------------------------------------------------------------|

A|---------------------------------------------------------------|

E|---------------------------------------------------------------|

B|---------------------------------------------------------------|

e|-14-14-16-16b17-16b17r16-16p14p12-14~-14-16-14-----------|

B|-----------------------------------------------16-17-14~-|

G|---------------------------------------------------------|

D|---------------------------------------------------------|

A|---------------------------------------------------------|

E|---------------------------------------------------------|

B|---------------------------------------------------------|

e|---------------------------19-------21-------21-22b24~-|

B|-14-16-16~-16-17-17~-17-16----16-16----16-16-----------|

G|-6~-----------8~-----------9~-------11~----------------|

D|-6~-----------8~-----------9~-------11~----------------|

A|-4~-----------6~-----------7~-------9~-----------------|

E|-------------------------------------------------------|

B|-------------------------------------------------------|

The backing chords to the solo are: C#5, B5, F#5, and C#5 (as lowest

possible fingerings), unless otherwise noted. The rhythm is easy to

figure out.

-Play Chorus-

The chorus goes on into this at 4:10 or so. It's with the singing.

e|--------------------------------------------|

B|--------------------------------------------|

G|---------13~--14-16~-b18r16~-14-13-14~-13~--|

D|-14~~-16------------------------------------|

A|--------------------------------------------|

E|--------------------------------------------|

B|--------------------------------------------|

Outro - directly from above tab. 4:28

e|-16-17-19~-16-17-19~-16-17-19~-16-17-19b21r19b21r19~-16-17-19-16-|

B|-----------------------------------------------------------------|

G|-----------------------------------------------------------------|

D|-----------------------------------------------------------------|

A|-----------------------------------------------------------------|

E|-----------------------------------------------------------------|

B|-----------------------------------------------------------------|

e|-19-16-16-17-17b19-17-16-17-17p16p14-16-16p14p12-14-14p12p11-12--|

B|-----------------------------------------------------------------|

G|-----------------------------------------------------------------|

D|-----------------------------------------------------------------|

A|-----------------------------------------------------------------|

E|-----------------------------------------------------------------|

B|-----------------------------------------------------------------|

I don't have a 7-string, but I'm fairly sure that this is the way to play it.

Leave a comment if you have any corrections. Enjoy! RA tabs are hard to find!

Please rate this tab.

Get this song at:  amazon.com sheetmusicplus.com

Share your thoughts

0 Comments found