Ra

Ra - Only guitar tab

Intro and Chorus

e----------------------------------------------------------------- Intro 2x

b-----------------------------------------------------------------

g----------------------------------------------------------------- Chorus 2x

d--0-0--2h3p2-----3-3--2h3p2-------0-0--2h3p2-----8-8--2h3p2-3/5-0

a--0-0-------3-0--3-3-------3-3/5--0-0-------3-0--8-8-------------

d--0-0------------3-3--------------0-0------------8-8-------------

pre-chorus

e---------------- play with flanger

b----------------

g---------------- play pre-chorus 10x

d--10-10----5--5-

a--8--7-----3--2-

d--8--7-----3--2-

e-------------------0-----------0-------------------------------------------

b-------------------2-----------2-------------------------------------------

g-------------------3-----------3-------------------------------------------

d--888888-777777-0--0--2-3-5-0--0--888888-777777-888888-777777-888888-777777

a--888888-777777-0--0--2-3-5-0--0--888888-777777-888888-777777-888888-777777

d--888888-777777-0--0--2-3-5-0--0--888888-777777-888888-777777-888888-777777

-------------------------------------

-------------------------------------

-------------------------------------

-888888-777777-888888-10-10-10-10-10-

-888888-777777-888888-10-10-10-10-10-

-888888-777777-888888-10-10-10-10-10-

Repeat the chorus and that is it

Get this song at:  amazon.com sheetmusicplus.com

Share your thoughts

0 Comments found