Ra

Ra - On My Side guitar tab

-------------------------------------------------------------------------------

On My Side - Ra

-------------------------------------------------------------------------------

Tabbed by: Pryftan Omni

Email: mmisbetterthenyou@hotmail.com

Tuning: Drop D, but you can get away with standard for the main part.

Picking part:

E|---3-----2------------------|

B|--0-0---0-0----3-----0h1p0--|

G|----------------2-----------|

D|-2-----2------2-----2-------|

A|-------------3-----0--------|

D|----------------------------|

E|---3-----2------------------|

B|--0-0---0-0----3-----0h1----|

G|----------------2--------0--|

D|-2-----2------2-----2-------|

A|-------------3-----0--------|

D|----------------------------|

The pre-chorus chords are just strums of D and C chords.

I've tabbed out the bar versions here but you can play them any way you want.

E|--5--3--|

B|--7--5--|

G|--7--5--|

D|--7--5--|

A|--5--3--|

D|--x--x--|

The chorus is just the following two chords:

E|--------|

B|--------|

G|-----5--|

D|--2--5--|

A|--2--3--|

D|--2-----|

Bridge:

E|------------------------|

B|------------------------|

G|------------------7-7---|

D|--7-7-7-7-5-5-5-5-7-7---|

A|--7-7-7-7-5-5-5-5-5-5---|

D|--7-7-7-7-5-5-5-5-0-0---|

Play this four times, then play

E|-----|

B|-----|

G|--5--|

D|--5--|

A|--3--|

D|-----|

RA - On My Side

Chris Foskey

foskey@purdue.edu

This is very similar to another tab on this site, but you can hear sliding

on the track, so thats indicating the chords used are not open ones.

Drop D

Intro:

E|---------------------------------------------|

B|-----8---------7---------3---------0h1-0-----|

G|-------9---------9---------------------------|

D|---9---------9---------5---5-----2-----------|

A|-7---------7---------3---------0-------------|

D|---------------------------------------------|

E|---------------------------------------------|

B|-----8---------7---------3---------0h1-0-----|

G|-------9---------9-----------------------0---|

D|---9---------9---------5---5-----2-----------| repeat

A|-7---------7---------3---------0-------------|

D|---------------------------------------------|

Prechorus:

E|--5--3--|

B|--5--3--|

G|--7--5--|

D|--7--5--|

A|--5--3--|

D|--------|

"And I will..."

Chorus:

E|----------|

B|--5-------|

G|--4---5---|

D|--2---5---|

A|--2---3---|

D|--2-------|

"If only..."

Bridge:

E|------------------------|

B|------------------------|

G|------------------7-7---|

D|--7-7-7-7-5-5-5-5-7-7---| x3

A|--7-7-7-7-5-5-5-5-5-5---|

D|--7-7-7-7-5-5-5-5-0-0---|

E|------------|

B|------------|

G|---5---7-7--|

D|---5---7-7--| repeat the C, then quick D

A|---3---5-5--| before chorus

D|-------0-0--

Get this song at:  amazon.com sheetmusicplus.com

Share your thoughts

0 Comments found