Ra

Ra - Every Little Thing She Does Is Magic guitar tab

ok heres the tab 2 eltsdim hope u enjoy lemme know if its good

oh yeah by the way i used the tab by webmaster at tabs-database.com.com (Johan Kristian Sveen) at

guitar.com 2 make mine so yeah the police verion parts are his all i got are the chorus and

intro all before i saw the police tab he submitted hope u like it i made up the end also

yeah hope u really like it ppl

the chord in the corus Dsus2/Bb is played like this [x1x230]

intro :

e--------0-----------------0-----------------0----------------5/3--3-2-0-------|

b-----------------3----------------3--0-0-0--0-0-3--2-2-2----------------------|

g-0-0-0----0-0----2-2-2----2-2------------------------------------------- x2--|

d------------------------------------------------------------------------------|

a------------------------------------------------------------------------------|

e------------------------------------------------------------------------------|

Verse

_

|riff thingy 1

|b-----------------------------------------------------------------------------------|

|g-----------------------------------------------------------------------------------|

|d-----------------------------------------------------------------------------------|

|a----------------0--000000----2--222222------4--444444------------------------------|

|e-3---333333------------------------------------------------------------------------|

|

|

|play intro again but only one time

|

|then play riff thingy 1 part again one time then

|

|D-0--000000-----0000000------0000000--------------|

|A----------------0-------------0--------------0---|

|_

chorus:

A D

Every little thing she does is magic

A D

Every little thing just turns me on

A D

Even though my love before was tragic

A Dsus2/Bb

now I know my love for her goes on

play intro again

then play verse

play chorus again

then play this halfway through the little bridge thingy

e---------------------------------------------------|

b---------------------------------------------------|

g---------------------------------------------------|

d---------------------------------------------------| x2 i think

a-1--1111----3--3333----------------0-0000----------|

e-------------------------3--3333-------------------|

play chorus

ending:

e----------------------------------------------------------|

b----------------------------------------------------------|

g----------------------------------------------------------|

d-----------------------------------0-000000-0-000000------| x4

a------0~----2~---4~--------0------------------------------|

e-3~-----------------------3-------------------------------|

then play this

D-0-000000-0-0000000--

untill the end

comments or anything of that sort send them 2 webmaster at tabs-database.com.com or

take care and i hope u like the tab

sincerely

Manny

aka LinkwithredAdded by tabs-database.com and our distinguished partners

Get this song at:  amazon.com sheetmusicplus.com

Share your thoughts

0 Comments found