Ra

Ra - Do You Call My Name guitar tab

#-----------------------------PLEASE NOTE-------------------------------------#

#This OLGA file is the author's own work and represents their interpretation #

#of the song. You may only use this file for private study, scholarship, or #

#research. Remember to view this file in Courier, or some other monospaced #

#font. See http://www.olga.net/faq/ for more information. #

#-----------------------------------------------------------------------------#

Subject: r/ra/do_you_call_my_name.tab

"Do You Call My Name" by Ra

From the Album: From One

Written by: Ra (Sahaj, Sean Corcoran, Ben Carroll, Skoota Warner)

Label: Republic / Universal Records

Tab by: John Myers

Before looking at the tab, read this stuff:

1) I'm a fairly meticulous person who has been playing guitar

for 20+ years. I've tried to make this tab very accurate,

but ultimately, this is just my interpretation of the song.

2) I'm assuming normal tuning (A 440)

3) The tab shows the entire song (nothing is repeated...)

4) I'm not showing hammer-ons, pull-offs, slides, etc....

I haven't tried to included any of those things in this

tab. If I did, I would probably just get it wrong. Listen

to the song and use your best judgment...

5) Since timing is especially important to this song, I have

shown timing under each tab. Each "dot" is counted as a

sixteenth note...

6) Ra has one guitarist, but there are numerous guitar

overdubs in this song, I am nt showing most of them

(especially the subtle ones), but when I do show them, they

are noted by a preceding "second guitar" comment.

7) The lyrics are shown below each tab measure to help you

keep your place in the tab. I tried to somewhat align them

with the music, but they are not necessarily aligned with

the timing below each measure

8) The "intro-acoustic" portion below is probably done on a

sitar, but I've done the tab as if it was done with a guitar.

9) This tab is for the album version of the song. The radio

version starts near the section I am calling "Main Riff",

which is about 30 measures into the tab below...

10) If you use the tab, find it helpful, or whatever, please

send me an email and let me know ( myers@mrchuckshow.com )

I like to know when I've been able to help someone...

11) Check out my other tab, "Lost in Germany", by King's X.

(intro-acoustic)

E|-------0-----0---------0---------|-------0-----0---------0---------|

B|-----0-----0---------0-----0-----|-----0-----0---------0-----0-----|

G|---4---------------4-------------|---4---------------4-------------|

D|-2---------------2-----------3---|-2---------------2-----------3---|

A|---------------------------------|---------------------------------|

E|---------------------------------|---------------------------------|

1 . . . 2 . . . 3 . . . 4 . . . 1 . . . 2 . . . 3 . . . 4 . . .

E|-------0-----0---------0---------|-------0-----0---------0-----0---|

B|-----0-----0---------0-----0-----|-----0-----0---------0-----0-----|

G|---4---------------4-------------|---4---------------4-------------|

D|-2---------------2-----------3---|-2---------------3---------------|

A|---------------------------------|---------------------------------|

E|---------------------------------|---------------------------------|

1 . . . 2 . . . 3 . . . 4 . . . 1 . . . 2 . . . 3 . . . 4 . . .

E|-------0-----0---------0---------|-------0-----0---------0---------|

B|-----0-----0---------0-----0-----|-----0-----0---------0-----0-----|

G|---4---------------4-------------|---4---------------4-------------|

D|-2---------------2-----------3---|-2---------------2-----------3---|

A|---------------------------------|---------------------------------|

E|---------------------------------|---------------------------------|

1 . . . 2 . . . 3 . . . 4 . . . 1 . . . 2 . . . 3 . . . 4 . . .

E|-------0-----0---------0---------|-------0-----0---------0-----0---|

B|-----0-----0---------0-----0-----|-----0-----0---------0-----0-----|

G|---4---------------4-------------|---4---------------4-------------|

D|-2---------------2-----------3---|-2---------------3---------------|

A|---------------------------------|---------------------------------|

E|---------------------------------|---------------------------------|

1 . . . 2 . . . 3 . . . 4 . . . 1 . . . 2 . . . 3 . . . 4 . . .

Note: The measures above are played "underneath" the following 7 measures

E|-1-0---4-----1-0-4-----5-----7---|-1-0---4-----1-0-------------1---|

B|---------------------------------|-----------------0-----1---------|

G|---------------------------------|---------------------------------|

D|---------------------------------|---------------------------------|

A|---------------------------------|---------------------------------|

E|---------------------------------|---------------------------------|

1 . . . 2 . . . 3 . . . 4 . . . 1 . . . 2 . . . 3 . . . 4 . . .

E|-1-0---4-----1-0-4-----5-----7---|-1-0---4-----1-0-------------1---|

B|---------------------------------|-----------------0-----1---------|

G|---------------------------------|---------------------------------|

D|---------------------------------|---------------------------------|

A|---------------------------------|---------------------------------|

E|---------------------------------|---------------------------------|

1 . . . 2 . . . 3 . . . 4 . . . 1 . . . 2 . . . 3 . . . 4 . . .

E|-1-0---4-----1-0-4-----5-----7---|-1-0---4-----1-0-------------1---|

B|---------------------------------|-----------------0-----1---------|

G|---------------------------------|---------------------------------|

D|---------------------------------|---------------------------------|

A|---------------------------------|---------------------------------|

E|---------------------------------|---------------------------------|

1 . . . 2 . . . 3 . . . 4 . . . 1 . . . 2 . . . 3 . . . 4 . . .

E|-1-0---4-----1-0-4-----5-----7---1-0---4-----1-0-|

B|-------------------------------------------------|

G|-------------------------------------------------|

D|-------------------------------------------------|

A|-------------------------------------------------|

E|-------------------------------------------------|

1 . . . 2 . . . 3 . . . 4 . . . 5 . . . 6 . . .

(intro-heavier riff)

E|---------------------------------|---------------------------------|

B|---------------------------------|---------------------------------|

G|---------------------------------|---------------------------------|

D|---------------------------------|-----------------------------3---|

A|---------------------------------|-----------------2-----3-----3---|

E|-1-0---4-----1-0-4-----5-----6---|-1-0---4-----1-0-2-----3-----1---|

1 . . . 2 . . . 3 . . . 4 . . . 1 . . . 2 . . . 3 . . . 4 . . .

E|---------------------------------|---------------------------------|

B|---------------------------------|---------------------------------|

G|---------------------------------|---------------------------------|

D|---------------------------------|-----------------------------3---|

A|---------------------------------|-----------------2-----3-----3---|

E|-1-0---4-----1-0-4-----5-----6---|-1-0---4-----1-0-2-----3-----1---|

1 . . . 2 . . . 3 . . . 4 . . . 1 . . . 2 . . . 3 . . . 4 . . .

Note: The second guitar plays notes in "()"

E|---------------------------------|---------------------------------|

B|---------------------------------|---------------------------------|

G|---------------------------------|---------------------------------|

D|(3 2)-(6)---(3 2 6)---(7)---(8)--|(3 2)-(6)---(3 2)------------3---|

A|---------------------------------|-----------------2-----3-----3---|

E|-1-0---4-----1-0-4-----5-----6---|-1-0---4-----1-0-2-----3-----1---|

1 . . . 2 . . . 3 . . . 4 . . . 1 . . . 2 . . . 3 . . . 4 . . .

E|---------------------------------|---------------------------------|

B|---------------------------------|---------------------------------|

G|---------------------------------|---------------------------------|

D|(3 2)-(6)---(3 2 6)---(7)---(8)--|(3 2)-(6)---(3 2)------------3---|

A|---------------------------------|-----------------2-----3-----3---|

E|-1-0---4-----1-0-4-----5-----6---|-1-0---4-----1-0-2-----3---------|

1 . . . 2 . . . 3 . . . 4 . . . 1 . . . 2 . . . 3 . . . 4 . . .

E|---------------------------------|---------------------------------|

B|---------------------------------|---------------------------------|

G|---------------------------------|---------------------------------|

D|-5-------------------------------|-8-------------------------------|

A|-5-------------------------------|-8-------------------------------|

E|-3-------------------------------|-6-------------------------------|

1 . . . 2 . . . 3 . . . 4 . . . 1 . . . 2 . . . 3 . . . 4 . . .

E|---------------------------------|---------------------------------|

B|---------------------------------|---------------------------------|

G|---------------------------------|---------------------------------|

D|---------------------------------|---------------------------------|

A|---------------------------------|---------------------------------|

E|---------------------------------|---------------------------------|

1 . . . 2 . . . 3 . . . 4 . . . 1 . . . 2 . . . 3 . . . 4 . . .

kill me with a beat...

(Main riff)

E|---------------------------------|---------------------------------|

B|---------------------------------|---------------------------------|

G|-----12--12--11--11----------11--|-----12--12--11--11----------11--|

D|---------------------------------|---------------------------------|

A|-----10--10--9---9-----------9---|-----10--10--9---9-----------9---|

E|-0-0-----------------0-0-0-0-----|-0-0-----------------0-0-0-0-----|

1 . . . 2 . . . 3 . . . 4 . . . 1 . . . 2 . . . 3 . . . 4 . . .

E|---------------------------------|---------------------------------|

B|---------------------------------|---------------------------------|

G|-----5---5---4---4-----------4---|-----5---5---4---4-----------10--|

D|---------------------------------|---------------------------------|

A|-----3---3---2---2-----------2---|-----3---3---2---2-----------8---|

E|-0-0-----------------0-0-0-0-----|-0-0-----------------0-0-0-0-----|

1 . . . 2 . . . 3 . . . 4 . . . 1 . . . 2 . . . 3 . . . 4 . . .

E|---------------------------------|---------------------------------|

B|---------------------------------|---------------------------------|

G|-----12--12--11--11----------11--|-----12--12--11--11----------11--|

D|---------------------------------|---------------------------------|

A|-----10--10--9---9-----------9---|-----10--10--9---9-----------9---|

E|-0-0-----------------0-0-0-0-----|-0-0-----------------0-0-0-0-----|

1 . . . 2 . . . 3 . . . 4 . . . 1 . . . 2 . . . 3 . . . 4 . . .

E|---------------------------------|---------------------------------|

B|---------------------------------|---------------------------------|

G|-----5---5---4---4-----------4---|-----5---5---4---4-----------10--|

D|---------------------------------|---------------------------------|

A|-----3---3---2---2-----------2---|-----3---3---2---2-----------8---|

E|-0-0-----------------0-0-0-0-----|-0-0-----------------0-0-0-0-----|

1 . . . 2 . . . 3 . . . 4 . . . 1 . . . 2 . . . 3 . . . 4 . . .

(1st verse)

E|---------------------------------|---------------------------------|

B|---------------------------------|---------------------------------|

G|---------------------------------|-------------------------3-------|

D|-3---2---2-----2-----2-----2-----|-5---2---2-----2-----2---3-------|

A|-3---2---2-----2-----2-----2-----|-5---2---2-----2-----2---1-------|

E|-1---0---0-----0-----0-----0-----|-3---0---0-----0-----0-----------|

1 . . . 2 . . . 3 . . . 4 . . . 1 . . . 2 . . . 3 . . . 4 . . .

Some people seem to think they always know whats best for you...

E|---------------------------------|---------------------------------|

B|---------------------------------|---------------------------------|

G|---------------------------------|-------------------------4-------|

D|-3---2---2-----2-----2-----2-----|-5---2---2-----2-----2---4-------|

A|-3---2---2-----2-----2-----2-----|-5---2---2-----2-----2---2-------|

E|-1---0---0-----0-----0-----0-----|-3---0---0-----0-----0-----------|

1 . . . 2 . . . 3 . . . 4 . . . 1 . . . 2 . . . 3 . . . 4 . . .

Their little minds try to create a world to keep you still

E|---------------------------------|---------------------------------|

B|---------------------------------|---------------------------------|

G|---------------------------------|-------------------------3-------|

D|-3---2---2-----2-----2-----2-----|-5---2---2-----2-----2---3-------|

A|-3---2---2-----2-----2-----2-----|-5---2---2-----2-----2---1-------|

E|-1---0---0-----0-----0-----0-----|-3---0---0-----0-----0-----------|

1 . . . 2 . . . 3 . . . 4 . . . 1 . . . 2 . . . 3 . . . 4 . . .

The bolt is thrown, the cage is locked. You saw this, don't you lie

E|---------------------------------|---------------------------------|

B|---------------------------------|---------------------------------|

G|---------------------------------|---------------------------------|

D|-3---2---2-----2-----2-----2-----|-5---2---2-----2-----2---5-------|

A|-3---2---2-----2-----2-----2-----|-5---2---2-----2-----2---5-------|

E|-1---0---0-----0-----0-----0-----|-3---0---0-----0-----0---3-------|

1 . . . 2 . . . 3 . . . 4 . . . 1 . . . 2 . . . 3 . . . 4 . . .

At first you cry and then you hate. Those people stole your will

(pre-chorus) 2nd guitar, 5th fret harmonics

|||||||

E|---------------------------------|------------------------(5)------|

B|---------------------------------|----------------------(5)--------|

G|-5-5-5-5-----5-5-5-5-------------|-4-4-4-4------------(5)----------|

D|-5-5-5-5-----5-5-5-5-------------|-4-4-4-4-----2-2-2-2-----5-------|

A|-3-3-3-3-----3-3-3-3-------------|-2-2-2-2-----2-2-2-2-----5-------|

E|---------------------------------|-------------0-0-0-0-----3-------|

1 . . . 2 . . . 3 . . . 4 . . . 1 . . . 2 . . . 3 . . . 4 . . .

Do as you are told And maybe then we'll let you out

E|---------------------------------|---------------------------------|

B|---------------------------------|---------------------------------|

G|---------------------------------|-4-4-4-4-------------------------|

D|-5-5-5-5-----5-5-5-5-------------|-4-4-4-4-----2-2-2-2-2---2-2---2-|

A|-3-3-3-3-----3-3-3-3-------------|-2-2-2-2-----2-2-2-2-2---2-2---2-|

E|---------------------------------|-------------0-0-0-0-0---0-0---0-|

1 . . . 2 . . . 3 . . . 4 . . . 1 . . . 2 . . . 3 . . . 4 . . .

You might be dead and cold You might be full of doubt

2nd guitar, 12th fret, no harmonics

||||||||

E|---------------------------------|-------------------------12------|

B|---------------------------------|-----------------------12--------|

G|-5-5-5-5-----5-5-5-5-------------|-4-4-4-4-------------12----------|

D|-5-5-5-5-----5-5-5-5-------------|-4-4-4-4-----2-2-2-2-------------|

A|-3-3-3-3-----3-3-3-3-------------|-2-2-2-2-----2-2-2-2-------------|

E|---------------------------------|-------------0-0-0-0-----3-------|

1 . . . 2 . . . 3 . . . 4 . . . 1 . . . 2 . . . 3 . . . 4 . . .

Don't try to escape, 'cause you don't have nowhere to go

E|---------------------------------|---------------------------------|

B|---------------------------------|---------------------------------|

G|---------------------------------|-4-4-4-4-------------------------|

D|-5-5-5-5-----5-5-5-5-------------|-4-4-4-4-----2-2-2-2-2---2-2-----|

A|-3-3-3-3-----3-3-3-3-------------|-2-2-2-2-----2-2-2-2-2---2-2-----|

E|---------------------------------|-------------0-0-0-0-0---0-0-----|

1 . . . 2 . . . 3 . . . 4 . . . 1 . . . 2 . . . 3 . . . 4 . . .

If nothing is your fate, There's no scenario... no nothing...

(chorus)

E|---------------------------------|---------------------------------|

B|---------------------------------|---------------------------------|

G|-----12--12--11--11----------11--|-----12--12--11--11----------11--|

D|---------------------------------|---------------------------------|

A|-----10--10--9---9-----------9---|-----10--10--9---9-----------9---|

E|-0-0-----------------0-0-0-0-----|-0-0-----------------0-0-0-0-----|

1 . . . 2 . . . 3 . . . 4 . . . 1 . . . 2 . . . 3 . . . 4 . . .

Do you call my name? Do you stain my brain?

E|---------------------------------|---------------------------------|

B|---------------------------------|---------------------------------|

G|-----5---5---4---4-----------4---|-----5---5---4---4-----------10--|

D|---------------------------------|---------------------------------|

A|-----3---3---2---2-----------2---|-----3---3---2---2-----------8---|

E|-0-0-----------------0-0-0-0-----|-0-0-----------------0-0-0-0-----|

1 . . . 2 . . . 3 . . . 4 . . . 1 . . . 2 . . . 3 . . . 4 . . .

My eyes are blurry and I can't see you anymore...

E|---------------------------------|---------------------------------|

B|---------------------------------|---------------------------------|

G|-----12--12--11--11----------11--|-----12--12--11--11----------11--|

D|---------------------------------|---------------------------------|

A|-----10--10--9---9-----------9---|-----10--10--9---9-----------9---|

E|-0-0-----------------0-0-0-0-----|-0-0-----------------0-0-0-0-----|

1 . . . 2 . . . 3 . . . 4 . . . 1 . . . 2 . . . 3 . . . 4 . . .

Do you call my name? Do you breed my pain?

E|---------------------------------|---------------------------------|

B|---------------------------------|---------------------------------|

G|-----5---5---4---4-----------4---|-----5---5---4---4-----------10--|

D|---------------------------------|---------------------------------|

A|-----3---3---2---2-----------2---|-----3---3---2---2-----------8---|

E|-0-0-----------------0-0-0-0-----|-0-0-----------------0-0-0-0-----|

1 . . . 2 . . . 3 . . . 4 . . . 1 . . . 2 . . . 3 . . . 4 . . .

My heart is bloody and I can't take it anymore...

(2nd verse)

E|---------------------------------|---------------------------------|

B|---------------------------------|---------------------------------|

G|-----------(Bass guitar during this part of the verse)-------------|

D|---------------------------------|---------------------------------|

A|---------------------------------|---------------------------------|

E|---------------------------------|---------------------------------|

1 . . . 2 . . . 3 . . . 4 . . . 1 . . . 2 . . . 3 . . . 4 . . .

So you just sit there stuck Afraid to risk reality

E|---------------------------------|---------------------------------|

B|---------------------------------|---------------------------------|

G|-----------(Bass guitar during this part of the verse)-------------|

D|---------------------------------|-------------------------5-------|

A|---------------------------------|-------------------------5-------|

E|---------------------------------|-------------------------3-------|

1 . . . 2 . . . 3 . . . 4 . . . 1 . . . 2 . . . 3 . . . 4 . . .

Afraid to cause yourself more pain yo face insanity

E|---------------------------------|---------------------------------|

B|---------------------------------|---------------------------------|

G|---------------------------------|-------------------------3-------|

D|-3---2---2-----2-----2-----2-----|-5---2---2-----2-----2---3-------|

A|-3---2---2-----2-----2-----2-----|-5---2---2-----2-----2---1-------|

E|-1---0---0-----0-----0-----0-----|-3---0---0-----0-----0-----------|

1 . . . 2 . . . 3 . . . 4 . . . 1 . . . 2 . . . 3 . . . 4 . . .

But nothing ventured, nothing gained, you see, your fear's your cage

E|---------------------------------|---------------------------------|

B|---------------------------------|---------------------------------|

G|---------------------------------|---------------------------------|

D|-3---2---2-----2-----2-----2-----|-5---2---2-----2-----2---5-------|

A|-3---2---2-----2-----2-----2-----|-5---2---2-----2-----2---5-------|

E|-1---0---0-----0-----0-----0-----|-3---0---0-----0-----0---3-------|

1 . . . 2 . . . 3 . . . 4 . . . 1 . . . 2 . . . 3 . . . 4 . . .

You beg for help but you're alone Stuck in a helpless rage

(pre-chorus) 2nd guitar, 5th fret harmonics

|||||||

E|---------------------------------|------------------------(5)------|

B|---------------------------------|----------------------(5)--------|

G|-5-5-5-5-----5-5-5-5-------------|-4-4-4-4------------(5)----------|

D|-5-5-5-5-----5-5-5-5-------------|-4-4-4-4-----2-2-2-2-----5-------|

A|-3-3-3-3-----3-3-3-3-------------|-2-2-2-2-----2-2-2-2-----5-------|

E|---------------------------------|-------------0-0-0-0-----3-------|

1 . . . 2 . . . 3 . . . 4 . . . 1 . . . 2 . . . 3 . . . 4 . . .

Do as you are told And maybe then we'll let you out

E|---------------------------------|---------------------------------|

B|---------------------------------|---------------------------------|

G|-5-5-5-5-----5-5-5-5-------------|-4-4-4-4-------------------------|

D|-5-5-5-5-----5-5-5-5-------------|-4-4-4-4-----2-2-2-2-2---2-2---2-|

A|-3-3-3-3-----3-3-3-3-------------|-2-2-2-2-----2-2-2-2-2---2-2---2-|

E|---------------------------------|-------------0-0-0-0-0---0-0---0-|

1 . . . 2 . . . 3 . . . 4 . . . 1 . . . 2 . . . 3 . . . 4 . . .

You might be dead and cold You might be full of doubt

2nd guitar, 5th fret harmonics

|||||||

E|---------------------------------|------------------------(5)------|

B|---------------------------------|----------------------(5)--------|

G|-5-5-5-5-----5-5-5-5-------------|-4-4-4-4------------(5)----------|

D|-5-5-5-5-----5-5-5-5-------------|-4-4-4-4-----2-2-2-2-------------|

A|-3-3-3-3-----3-3-3-3-------------|-2-2-2-2-----2-2-2-2-------------|

E|---------------------------------|-------------0-0-0-0-----3-------|

1 . . . 2 . . . 3 . . . 4 . . . 1 . . . 2 . . . 3 . . . 4 . . .

Don't try to escape, 'cause you don't have nowhere to go

E|---------------------------------|---------------------------------|

B|---------------------------------|---------------------------------|

G|-5-5-5-5-----5-5-5-5-------------|-4-4-4-4-------------------------|

D|-5-5-5-5-----5-5-5-5-------------|-4-4-4-4-----2-2-2-2-2---2-------|

A|-3-3-3-3-----3-3-3-3-------------|-2-2-2-2-----2-2-2-2-2---2-------|

E|---------------------------------|-------------0-0-0-0-0---0-3-----|

1 . . . 2 . . . 3 . . . 4 . . . 1 . . . 2 . . . 3 . . . 4 . . .

If nothing is your fate, There's no scenario...

(1st bridge)

E|---------------------------------|---------------------------------|

B|-------------0-------------------|-1-----------0-------------------|

G|---------2-----------2-----------|-----2---------------2-----------|

D|-----2-----------------------2---|---------2-------------------2---|

A|-0-------------------------------|---------------------------------|

E|---------------------------------|---------------------------------|

1 . . . 2 . . . 3 . . . 4 . . . 1 . . . 2 . . . 3 . . . 4 . . .

E|---------------------------------|---------------------------------|

B|-------------0-------------------|-3-----------1-------------------|

G|---------2-----------2-----------|-----2---------------2-----------|

D|-----2-----------------------2---|---------2-------------------2---|

A|-0-------------------------------|---------------------------------|

E|---------------------------------|---------------------------------|

1 . . . 2 . . . 3 . . . 4 . . . 1 . . . 2 . . . 3 . . . 4 . . .

It's me...

E|---------------------------------|---------------------------------|

B|-------------0-------------------|-1-----------0-------------------|

G|---------2-----------2-----------|-----2---------------2-----------|

D|-----2-----------------------2---|---------2-------------------2---|

A|-0-------------------------------|---------------------------------|

E|---------------------------------|---------------------------------|

1 . . . 2 . . . 3 . . . 4 . . . 1 . . . 2 . . . 3 . . . 4 . . .

I see...

E|-0-----------0-------------------|-0-----------0-------------------|

B|-----3---------------3-----------|-----3---------------3-----------|

G|---------2-------------------2---|---------2-------------------2---|

D|---------------------------------|---------------------------------|

A|---------------------------------|---------------------------------|

E|---------------------------------|---------------------------------|

1 . . . 2 . . . 3 . . . 4 . . . 1 . . . 2 . . . 3 . . . 4 . . .

Please... Let me out, I'm petrified

(2nd bridge)

E|---------------------------------|---------------------------------|

B|---------------------------------|---------------------------------|

G|---------------------------------|---------------------------------|

D|---------------------------------|-----------------------------3---|

A|---------------------------------|-----------------2-----3-----3---|

E|-1-0---4-----1-0-4-----5-----6---|-1-0---4-----1-0-2-----3-----1---|

1 . . . 2 . . . 3 . . . 4 . . . 1 . . . 2 . . . 3 . . . 4 . . .

E|---------------------------------|---------------------------------|

B|---------------------------------|---------------------------------|

G|---------------------------------|---------------------------------|

D|---------------------------------|-----------------------------3---|

A|---------------------------------|-----------------2-----3-----3---|

E|-1-0---4-----1-0-4-----5-----6---|-1-0---4-----1-0-2-----3-----1---|

1 . . . 2 . . . 3 . . . 4 . . . 1 . . . 2 . . . 3 . . . 4 . . .

Note: The second guitar plays notes in "()"

E|---------------------------------|---------------------------------|

B|---------------------------------|---------------------------------|

G|---------------------------------|---------------------------------|

D|(3 2)-(6)---(3 2 6)---(7)---(8)--|(3 2)-(6)---(3 2)------------3---|

A|---------------------------------|-----------------2-----3-----3---|

E|-1-0---4-----1-0-4-----5-----6---|-1-0---4-----1-0-2-----3-----1---|

1 . . . 2 . . . 3 . . . 4 . . . 1 . . . 2 . . . 3 . . . 4 . . .

E|---------------------------------|------------------------------------------------|

B|---------------------------------|------------------------------------------------|

G|---------------------------------|------------------------------------------------|

D|(3 2)-(6)---(3 2 6)---(7)---(8)--|(3 2)-(6)---(3 2)------------------2-----4---5--|

A|---------------------------------|-----------------2-----3-----5-----2-----4---5--|

E|-1-0---4-----1-0-4-----5-----7---|-1-0---4-----1-0-2-----3-----5------------------|

1 . . . 2 . . . 3 . . . 4 . . . 1 . . . 2 . . . 3 . . . 4 . . . 5 . . . 6 . . .

(pre-chorus) 2nd guitar, 5th fret harmonics

|||||||

E|---------------------------------|------------------------(5)------|

B|---------------------------------|----------------------(5)--------|

G|-5-5-5-5-----5-5-5-5-------------|-4-4-4-4------------(5)----------|

D|-5-5-5-5-----5-5-5-5-------------|-4-4-4-4-----2-2-2-2-------------|

A|-3-3-3-3-----3-3-3-3-------------|-2-2-2-2-----2-2-2-2-------------|

E|---------------------------------|-------------0-0-0-0-----3-------|

1 . . . 2 . . . 3 . . . 4 . . . 1 . . . 2 . . . 3 . . . 4 . . .

Do as you are told And maybe then we'll let you out

E|---------------------------------|---------------------------------|

B|---------------------------------|---------------------------------|

G|-5-5-5-5-----5-5-5-5-------------|-4-4-4-4-------------------------|

G|-5-5-5-5-----5-5-5-5-------------|-4-4-4-4-----2-2-2-2-2---2-2---2-|

A|-3-3-3-3-----3-3-3-3-------------|-2-2-2-2-----2-2-2-2-2---2-2---2-|

E|---------------------------------|-------------0-0-0-0-0---0-0---0-|

1 . . . 2 . . . 3 . . . 4 . . . 1 . . . 2 . . . 3 . . . 4 . . .

You might be dead and cold You might be full of doubt

2nd guitar, 5th fret harmonics

|||||||

E|---------------------------------|------------------------(5)------|

B|---------------------------------|----------------------(5)--------|

G|-5-5-5-5-----5-5-5-5-------------|-4-4-4-4------------(5)----------|

D|-5-5-5-5-----5-5-5-5-------------|-4-4-4-4-----2-2-2-2-------------|

A|-3-3-3-3-----3-3-3-3-------------|-2-2-2-2-----2-2-2-2-------------|

E|---------------------------------|-------------0-0-0-0-----3-------|

1 . . . 2 . . . 3 . . . 4 . . . 1 . . . 2 . . . 3 . . . 4 . . .

Don't try to escape, 'cause you don't have nowhere to go

E|---------------------------------|---------------------------------|

B|---------------------------------|---------------------------------|

G|-5-5-5-5-----5-5-5-5-------------|-4-4-4-4-------------------------|

D|-5-5-5-5-----5-5-5-5-------------|-4-4-4-4-----2-2-2-2-2---2-2-----|

A|-3-3-3-3-----3-3-3-3-------------|-2-2-2-2-----2-2-2-2-2---2-2-----|

E|---------------------------------|-------------0-0-0-0-0---0-0-----|

1 . . . 2 . . . 3 . . . 4 . . . 1 . . . 2 . . . 3 . . . 4 . . .

If nothing is your fate, There's no scenario... come on...

(final chorus)

E|---------------------------------|---------------------------------|

B|---------------------------------|---------------------------------|

G|-----12--12--11--11----------11--|-----12--12--11--11----------11--|

D|---------------------------------|---------------------------------|

A|-----10--10--9---9-----------9---|-----10--10--9---9-----------9---|

E|-0-0-----------------0-0-0-0-----|-0-0-----------------0-0-0-0-----|

1 . . . 2 . . . 3 . . . 4 . . . 1 . . . 2 . . . 3 . . . 4 . . .

Do you call my name? Do you stain my brain?

E|---------------------------------|---------------------------------|

B|---------------------------------|---------------------------------|

G|-----5---5---4---4-----------4---|-----5---5---4---4-----------10--|

D|---------------------------------|---------------------------------|

A|-----3---3---2---2-----------2---|-----3---3---2---2-----------8---|

E|-0-0-----------------0-0-0-0-----|-0-0-----------------0-0-0-0-----|

1 . . . 2 . . . 3 . . . 4 . . . 1 . . . 2 . . . 3 . . . 4 . . .

My eyes are blurry and I can't see you anymore...

E|---------------------------------|---------------------------------|

B|---------------------------------|---------------------------------|

G|-----12--12--11--11----------11--|-----12--12--11--11----------11--|

D|---------------------------------|---------------------------------|

A|-----10--10--9---9-----------9---|-----10--10--9---9-----------9---|

E|-0-0-----------------0-0-0-0-----|-0-0-----------------0-0-0-0-----|

1 . . . 2 . . . 3 . . . 4 . . . 1 . . . 2 . . . 3 . . . 4 . . .

Do you call my name? Do you breed my pain?

E|---------------------------------|---------------------------------|

B|---------------------------------|---------------------------------|

G|-----5---5---4---4-----------4---|-----5---5---4---4-----------10--|

D|---------------------------------|---------------------------------|

A|-----3---3---2---2-----------2---|-----3---3---2---2-----------8---|

E|-0-0-----------------0-0-0-0-----|-0-0-----------------0-0-0-0-----|

1 . . . 2 . . . 3 . . . 4 . . . 1 . . . 2 . . . 3 . . . 4 . . .

My heart is bloody and I can't take it anymore...

E|---------------------------------|---------------------------------|

B|---------------------------------|---------------------------------|

G|-----12--12--11--11----------11--|-----12--12--11--11----------11--|

D|---------------------------------|---------------------------------|

A|-----10--10--9---9-----------9---|-----10--10--9---9-----------9---|

E|-0-0-----------------0-0-0-0-----|-0-0-----------------0-0-0-0-----|

1 . . . 2 . . . 3 . . . 4 . . . 1 . . . 2 . . . 3 . . . 4 . . .

Do you call my name? Do you stain my brain?

E|---------------------------------|---------------------------------|

B|---------------------------------|---------------------------------|

G|-----5---5---4---4-----------4---|-----5---5---4---4-----------10--|

D|---------------------------------|---------------------------------|

A|-----3---3---2---2-----------2---|-----3---3---2---2-----------8---|

E|-0-0-----------------0-0-0-0-----|-0-0-----------------0-0-0-0-----|

1 . . . 2 . . . 3 . . . 4 . . . 1 . . . 2 . . . 3 . . . 4 . . .

My eyes are blurry and I can't see you anymore...

E|---------------------------------|---------------------------------|

B|---------------------------------|---------------------------------|

G|-----12--12--11--11----------11--|-----12--12--11--11----------11--|

D|---------------------------------|---------------------------------|

A|-----10--10--9---9-----------9---|-----10--10--9---9-----------9---|

E|-0-0-----------------0-0-0-0-----|-0-0-----------------0-0-0-0-----|

1 . . . 2 . . . 3 . . . 4 . . . 1 . . . 2 . . . 3 . . . 4 . . .

Do you call my name? Do you breed my pain?

E|---------------------------------|---------------------------------|

B|---------------------------------|---------------------------------|

G|-----5---5---4---4-----------4---|-----5---5---4---4-------4-------|

D|---------------------------------|---------------------------------|

A|-----3---3---2---2-----------2---|-----3---3---2---2-------2-------|

E|-0-0-----------------0-0-0-0-----|-0-0-----------------0-0---------|

1 . . . 2 . . . 3 . . . 4 . . . 1 . . . 2 . . . 3 . . . 4 . . .

My heart is bloody and I can't take it anymore...

E|---------------------------------|

B|---------------------------------|

G|---------------------------------|

D|-2-------------------------------|

A|-2-------------------------------|

E|-0-------------------------------|

1 . . . 2 . . . 3 . . . 4 . . .

Get this song at:  amazon.com sheetmusicplus.com

Share your thoughts

0 Comments found