Ra

Ra - Do You Call My Name Bass guitar tab

Ra -Do You Call My Name

Tuning: EADG

~~ = let ring

please rate.... and enjoy!

Intro (0:40)

|--------------------------------------|

|--------------------------------------|

|--------------------------------------| x4

|1-0-1/4--1-0--4-5-6-1-0-1/4--1-0-0-1-2|

|----------------|

|----------------|

|----------------|

|3~~~~~~~5~~~~~~~|

Chorus

|----12-12-11-11-------11---12-12-11-11-------11|

|-----------------------------------------------|

|-----------------------------------------------|

|-0-0-----------0-0-0-0--0-0-----------0-0-0-0--|

|---5-5-4-4--------4----5-5-4-4--------11|

|----------------------------------------|

|----------------------------------------| x2

|0-0-------0-0-0-0--0-0--------0-0-0-0---|

Verse

|-------------------------------|

|-------------------------------|

|-------------------------------| x4

|3-0-0--0-0--00-3-0-0--0-0--00-6|

Pre-Chorus

|---------------------|

|---------------------|

|---------------------| x4

|3333-2222---2222-0000|

Chorus

|----12-12-11-11-------11---12-12-11-11-------11|

|-----------------------------------------------|

|-----------------------------------------------|

|-0-0-----------0-0-0-0--0-0-----------0-0-0-0--|

|---5-5-4-4--------4----5-5-4-4--------11|

|----------------------------------------|

|----------------------------------------| x2

|0-0-------0-0-0-0--0-0--------0-0-0-0---|

Verse

|-------------------------------|

|-------------------------------|

|-------------------------------| x4

|3-0-0--0-0--00-3-0-0--0-0--00-6|

Pre-Chorus

|---------------------|

|---------------------|

|---------------------| x4

|3333-2222---2222-0000|

Bridge

|------------------------------------------------------------------|

|------------------------------------------------------------------|

|------------------------------------------------------------------|

|0-3-5~~~7~~8-0-8-7-0-7-0-5~~~7~~8-0-8-7-0-7-0-5~~~7~~8-0-8-7-0-7-0|

|---------------------|

|---------------------|

|---------------------|

|5~~~7~~8-000000000000|

Intro

|--------------------------------------|

|--------------------------------------|

|--------------------------------------| x4

|1-0-1/4--1-0--4-5-6-1-0-1/4--1-0-0-1-2|

|---------|

|---------|

|---------|

|3~~5~~6-7|

Pre-Chorus

|---------------------|

|---------------------|

|---------------------| x4

|3333-2222---2222-0000|

Chorus

|----12-12-11-11-------11---12-12-11-11-------11|

|-----------------------------------------------|

|-----------------------------------------------|

|-0-0-----------0-0-0-0--0-0-----------0-0-0-0--|

|---5-5-4-4--------4----5-5-4-4--------11|

|----------------------------------------|

|----------------------------------------| x2

|0-0-------0-0-0-0--0-0--------0-0-0-0---|

Ending line

|----12-12-11-11-------11---12-12-11-11-------11|

|-----------------------------------------------|

|-----------------------------------------------|

|-0-0-----------0-0-0-0--0-0-----------0-0-0-0--|

|---5-5-4-4--------4----5-5-4-----------------------|

|---------------------------------------------------|

|---------------------------------------------------|

|0-0-------0-0-0-0--0-0-------3-2-3-2-3-2-0~~~~~~~~~|Added by tabs-database.com and our distinguished partners

Get this song at:  amazon.com sheetmusicplus.com

Share your thoughts

0 Comments found