Queen

Bohemlan Rhapsody Tabs



More from Queen

Queen Tabs
Queen Chords
Queen Bass
Queen Lyrics



BOHEMIAN RHAPSODY
As recorded by Queen
(From the 1975 Album A NIGHT AT THE OPERA)


Words and Music by Freddie Mercury

Done By Daniel Pacheco (Heavymatadouro@hotmail.com)

F#
x x 4 3 2 x G#
x x 6 5 4 x A#
x x 8 7 6 x B5
7 9 9 x x x
Bb5
6 8 8 x x x Ab5
4 6 6 x x x Bb5I
x 1 3 x x x


Gtr I (E A D G B E) - 'Freddie Mercury (Piano)'
Gtr II (E A D G B E) - 'Brian May (Gtr.1)'
Gtr III (E A D G B E) - 'Brian May (Gtr.2)'
Gtr IV (E A D G B E) - 'Brian May (Gtr.3)'
Gtr V (E A D G B E) - 'Untitled'


Intro
Moderately Slow Rock Q=72
Gm7 C7 F7 Bb
4/4 5/4
Gtr I
W W W +Q W +Q
|-6--------|-6--------|-----------------|-6--------(6)---|
|-6--------|-5--------|-10--------(10)--|-6--------(6)---|
|-7--------|-5--------|--8---------(8)--|-7--------(7)---|
|-5--------|-5--------|-10--------(10)--|-8--------(8)---|
|----------|-3--------|--8---------(8)--|-8--------(8)---|
|----------|----------|-----------------|-6--------(6)---|


Gm Bb7 Eb Ab/Eb Eb Cm
4/4
E E E E E E E E W E E E E E E E E Q E E +E E Q
|---------3-------|-----------|----------------11----11-|---------------------|
|-------3---3-----|-^6--------|----------11-13----11----|-----8-11-(11)--8----|
|-3---3-------3---|-^7--------|-12----12----13----12----|-----8--8--(8)--8----|
|-5-5-----------5-|-^8--------|-13-13-------------------|-10----10-(10)-10----|
|-5---------------|-^8--------|-13----------------------|-10------------------|
|-3---------------|-^6--------|-11----------------------|--8---------------8--|


F B Bb A Bb B Bb A Bb Eb Bb/D
Q E E +H Q Q Q Q Q Q Q Q E E E E E E E E
|------5-(5)----|-7--6--5--6--|-7--6--5--6--|-------11----------10-----|
|----6-6-(6)----|-7--6--5--6--|-7--6--5--6--|-------11----------11-----|
|----5-5-(5)----|-8--7--6--7--|-8--7--6--7--|-------12----------10-----|
|-7--7-7--------|-------------|-------------|-13-13----13-12-12----12--|
|-8-------------|-------------|-------------|-13----------13-----------|
|---------------|-------------|-------------|-11----------10-----------|


C#7 F7/C F7/Eb
T
E E E E E E Q +E E E E H
|-----------------------|---------------^11----|
|--8----11----------10--|-(10)----------^10----|
|--9-----9-----8-----8--|--(8)-------10-^10----|
|-11-11-11-11-10-10-----|------10-13-----------|
|-10-----------8--------|----------------------|
|--9-----------8--------|----------------------|


Bb
T T T T
E E E E E E E E E E E E E E E E
|---------15----13----|---------15----13-----||
|---------------------|----------------------||
|-7-----7-12----10----|-7-----7-12----10-----||
|-8---8---------------|-8---8----------------||
|-8-8-----------------|-8-8------------------||
|-6----------13----13-|-6----------13----13--||


1st Verse
Bb Gm
T T T T
E E E E E E E E E E E E E E E E
|---------15----13----|---------17----15----|
|---------------------|-------3-------------|
|-7-----7-12----10----|-3---3---14----12----|
|-8---8---------------|-5-5-----------------|
|-8-8-----------------|-5-------------------|
|-6----------13----13-|-3----------15----15-|


Cm F7
T T
E E E E E E E E E E E E E E E E
|-----------22----20----|-------------------8--|
|---------8-------------|-11------8-10---------|
|--8----8---19----17----|--8----8----8-8-10----|
|-10-10-----------------|-10-10-----10---------|
|-10--------------------|-10---------8---------|
|--8-----------20----20-|--8-------------------|


Bb Gm
T T T T
E E E E E E E E E E E E E E E E
|---------15----13----|---------17----15----|
|---------------------|-------3-------------|
|-7-----7-12----10----|-3---3---14----12----|
|-8---8---------------|-5-5-----------------|
|-8-8-----------------|-5-------------------|
|-6----------13----13-|-3----------15----15-|


Cm B+ Eb/Bb A AbmaEb/G
E E E E E E E E E E E E E E E E
|--------------------|------------------|
|---------8--------8-|-------8---8---8--|
|--8----8----8---8---|-8---8---8---8----|
|-10-10------9---8---|-7-7-----6---5----|
|-10--------10---6---|-6----------------|
|--8---------7-7-6---|-5-------4---3----|


Eb Bb/D Cm
T T
E E E E E E E E E E E E E E E E
|-------11----------------|-----------22----20----|
|-------11----11-------11-|--8------8-------------|
|-------12----12-------10-|--8----8---19----17----|
|-13-13----13----13-12----|-10-10-----------------|
|-13----------------13----|-10--------------------|
|-11----------------10----|--8-----------20----20-|


Fm E+Ab/ED Bb Bb6 Bb7
E E E E E E E E E. S E S S E S S E S S
|-------8-8-8---8---|------------------------|
|--9----9-----------|------6-----8-----9-----|
|-10-10---9-8-8-7-7-|-7----7-----7-----7-----|
|-10--------6---6---|-8----8-----8-----8-----|
|--8------7-6---5---|-8----------------------|
|-------------------|-6--6---6-6---6-6---6-6-|


Eb Bb/D Cm Abm
E E E E E E E E E E E E H
|-------11----------10----|-----------------|
|-------11----------11----|--8----8----4----|
|-12----12----10----10----|--8----8----4----|
|-13-13----13-12-12----12-|-10-10---10-6----|
|-13----------13----------|-10---------6----|
|-11----------10----------|--8---------4----|


Eb Ab/Eb Eb Eb Ebsus2sus4
2/4
E E E E E E E E E E E E
|----------------11----11-|----11----11-|
|----------11-13----11----|-10-----9----|
|-12----12----13----12----|-11----10----|
|-13-13-------------------|-------------|
|-13----------------------|-------------|
|-11----------------------|-------------|


Bb
4/4
T T T T
E E E E E E E E E E E E E E E E
|---------15----13----|---------15----13----||
|---------------------|---------------------||
|-7-----7-12----10----|-7-----7-12----10----||
|-8---8---------------|-8---8---------------||
|-8-8-----------------|-8-8-----------------||
|-6----------13----13-|-6----------13----13-||


2nd Verse
Bb Gm
T T T T
E E E E E E E E E E E E E E E E
|---------15----13----|---------17----15----|
|---------------------|-------3-------------|
|-7-----7-12----10----|-3---3---14----12----|
|-8---8---------------|-5-5-----------------|
|-8-8-----------------|-5-------------------|
|-6----------13----13-|-3----------15----15-|


Cm F7
T T
E E E E E E E E E E E E E E E E
|-----------22----20----|-------------------8-|
|---------8-------------|-11------8-10--------|
|--8----8---19----17----|--8----8----8-8-10---|
|-10-10-----------------|-10-10-----10--------|
|-10--------------------|-10---------8--------|
|--8-----------20----20-|--8------------------|


Bb Gm
T T T T
E E E E E E E E E E E E E E E E
|---------15----13----|---------17----15-----|
|---------------------|-------3--------------|
|-7-----7-12----10----|-3---3---14----12-----|
|-8---8---------------|-5-5------------------|
|-8-8-----------------|-5--------------------|
|-6----------13----13-|-3----------15----15--|


Cm B+ Eb/Bb A AbmaEb/G
E E E E E E E E E E E E E E E E
|--------------------|-------------------|
|---------8--------8-|-------8---8---8---|
|--8----8----8---8---|-8---8---8---8-----|
|-10-10------9---8---|-7-7-----6---5-----|
|-10--------10-------|-6-----------------|
|--8---------7-7-6---|-5-------4---3-----|
|
| Gtr II
| ~~~~~~~
| W H Q E. S
|--------------------|-------------------|
|--------------------|-------------------|
|--------------------|-------------------|
|--------------------|-------------------|
|--------------------|-------------------|
|--------------------|-5-------4---3p==0-|


Eb Bb/D Cm
T T
E E E E E E E E E E E E E E E E
|--------11----------------|------------22----20-------|
|--------11----11-------11-|--8-------8----------------|
|--------12----12-------10-|--8-----8---19----17-------|
|-13--13----13----13-12----|-10--10--------------------|
|-13-----------------13----|-10------------------------|
|-11-----------------10----|--8------------20-----20---|
|
| H. Q H. +E +E
|--------------------------|---------------------------|
|--------------------------|---------------------------|
|--------------------------|---------------------------|
|--------------------------|---------------------------|
|--6------------------5----|--3---------------(3)-(3)-|
|--------------------------|---------------------------|


Fm E+Ab/ED Bb Bb6 Bb7
E E E E E E E E E. S E S S E S S S S E
|--------8-8-8---8---|-----------------------------||
|--9-----9-----------|------6-6---8-8---9-9--------||
|-10--10---9-8-8-7-7-|-7----7-7---7-7---7-7--------||
|-10---------6---6---|-8----8-8---8-8---8-8--------||
|--8-------7-6---5---|-8---------------------------||
|--------------------|-6--------6-----6------6-6---||
|
| ~~~ ~
| Q. E Q Q E S S E S S E S S S S e
|--------------------|-----------------------------||
|--------------------|-----------------------------||
|--------------------|-----------------------------||
|--------------------|-----------------------------||
|----------7-6---5---|-----------------------------||
|--1-----------------|-6--6-6-6-6-6-6-6-6-6--6-6---||
|
| Gtr III
| W H Q E. S
|--------------------|-----------------------------||
|--------------------|-----------------------------||
|--------------------|-----------------------------||
|--------------------|---------------------------8-||
|--------------------|-----------------------------||
|--------------------|-----------------------------||


Guitar Solo
Eb Bb/D
E E E E E E E E
|--------11------------------------10-----|
|--------11------------------------11-----|
|-12-----12-----------------10-----10-----|
|-13--13---------13---------12--12----12--|
|-13------------------------13------------|
|-11------------------------10------------|
|
| ~~~
| H H
|-----------------------------------------|
|-----------------------------------------|
|-----------------------------------------|
|-----------------------------------------|
|--6-------------------------5------------|
|-----------------------------------------|
|
| ~~~ ~~~
| |---3---|
| +Q E +S +S S Q. E
|-----------------------------------------|
|---------------------------11---------8--|
|--------10b12==(10)r(10)p8---------------|
|-(8)-------------------------------------|
|-----------------------------------------|
|-----------------------------------------|


Cm
T T
E E E E E E E E
|------------------------22-------20-------|
|--8-----------------8---------------------|
|--8--------------8------19-------17-------|
|-10---------10----------------------------|
|-10---------------------------------------|
|--8------------------------20-------20----|
|
| ~~~~~~~~~~~~~~~~~~~~~~~~~~~~~~~~~~~~~~~~~
| W
|------------------------------------------|
|------------------------------------------|
|------------------------------------------|
|------------------------------------------|
|--3---------------------------------------|
|------------------------------------------|
|
| ~~~~~~~~~~~ ~~ ~~
| S +E. +E S S E S S E S S
|------------------------------------------|
|-11b13-(11)----(11)-----13-15-16-13-15-16-|
|----------------------x-------------------|
|----------------------x-------------------|
|------------------------------------------|
|------------------------------------------|


Fm E+ Ab/Eb Dm7b5
E E E E E E E E
|--------------8----8---------8-----------8-------|
|--9-----------9----------------------------------|
|-10------10--------9---------8-----8-----7-----7-|
|-10--------------------------6-----------6-------|
|--8----------------7---------6-----------5-------|
|-------------------------------------------------|
|
|~~~~~~~~~ ~~
| Q. E Q Q
|-------------------------------------------------|
|-------------------------------------------------|
|-------------------------------------------------|
|-------------------------------------------------|
|-------------------7---------6-----------5-------|
|--1----------------------------------------------|
|
| ~~~~~~~~~~~~~~~~ ~~~~~~
| Q +E +s s a s S S S Q
|----------------------------13-15-16-18-18pb20---|
|-16pb18=====(16)r(16)-13-13----------------------|
|-------------------------------------------------|
|-------------------------------------------------|
|-------------------------------------------------|
|-------------------------------------------------|


Bb Bb6 Bb7
E. S E S S S S S S S S E
|------------------------------------------------------------------------------|
|------------------6--------6-------------8-----8----------------9------9------|
|-----7------------7--------7-------------7-----7----------------7------7------|
|-----8------------8--------8-------------8-----8----------------8------8------|
|-----8------------------------------------------------------------------------|
|-----6------------------------------6-------------------6--6--------------6-6-|
|
| E. S E S S E S S E E
|------------------------------------------------------------------------------|
|------------------------------------------------------------------------------|
|------------------------------------------------------------------------------|
|------------------------------------------------------------------------------|
|------------------------------------------------------------------------------|
|-----6------------6--------6--------6----6-----6-----------6----6------6----6-|
|
| ~~~~~~~
| |--3--| |--3--| |---3---| |--3--| |---3---|
| a s s T T T T T S S S s s S T T T S S S S +Q
|-18s16--16-15-16-15h16p15----15-----------------------------------------------|
|--------------------------18----18-16-15---16-15h16p15----15------------------|
|-------------------------------------------------------17----17---15-(15)-----|
|------------------------------------------------------------------------------|
|------------------------------------------------------------------------------|
|------------------------------------------------------------------------------|


Eb Bb/D
E E E E E E E E
|--------------------11------------------------------------10----------------|
|--------------------11------------------------------------11----------------|
|--12----------------12----------------10------------------10----------------|
|--13-------13----------------13-------12------12-------------------12-------|
|--13----------------------------------13------------------------------------|
|--11----------------------------------10------------------------------------|
|
| ~~~~ ~~~~~
| |3-|
| Q. S S Q. +S E
|----------------------------------------------------------------------------|
|----------------------------------------------------------------------------|
|----------------------------------------------------------------------------|
|----------------------------------------------------------------------------|
|---6--------------------------6----6---5---------------------------(5)-5S===|
|----------------------------------------------------------------------------|
|
| ~~ ~~~
| |--3--| |--3--| |--3--| |3-| |-3--| |--3--|
| +S S s S S S S S S S E +E S T T T T S S S S S
|--------------------------15-16-18---(18)----------------15-16-18-------20-|
|-----------------15-16-18------------------------15-16-18-------------------|
|-(15)---15----17---------------------------15-17----------------------------|
|----------------------------------------------------------------------------|
|----------------------------------------------------------------------------|
|----------------------------------------------------------------------------|


Cm
T T
E E E E E E E E
|-------------------22-------20---------|
|---8----------8------------------------|
|---8-----8---------19-------17---------|
|--10--10-------------------------------|
|--10-----------------------------------|
|---8------------------20---------20----|
|
| ~~~~
| Q S S S S Q S S S S
|---------------------------------------|
|---------------------------------------|
|---------------------------------------|
|--------------------5------------------|
|---3----------------3--------3p1-------|
|---------4-3--2--3----------------3p=1-|
|
|~~~~~~ ~~ ~~~
| +Q E S S E S S E S S
|-(20)----------------------------------|
|-------------15-16-13-15-16-13---15-16-|
|---------------------------------------|
|---------------------------------------|
|---------------------------------------|
|---------------------------------------|


Fm E+ Ab/EbDm7b5
E E E E E E E E
|-----------8----8-----8----8---|
|--9--------9-------------------|
|-10-----10------9-----8-8--7-7-|
|-10-------------------6----6---|
|--8-------------7-----6----5---|
|-------------------------------|
|
| ~~
| Q. E Q Q
|-------------------------------|
|-------------------------------|
|-------------------------------|
|-------------------------------|
|----------------7-----6----5---|
|--1----------------------------|
|
| ~~~~~~
| Q. a S S Q Q
|--------------------------13---|
|-16pb18------------------------|
|---------------10-12-13--------|
|-------------x-----------------|
|-------------------------------|
|-------------------------------|


Faster Q=76
Db Db/C Db/Cb Bbm7 A
|----3----|
E. S E E E Q Q e e e e e e e e
|------9--9-------------------------------------|-----------------||
|------9--9---------------------7------6--------|-5-5-5-5-5-5-5-5-||
|-10--10-10--10----10-----------8------6--------|-6-6-6-6-6-6-6-6-||
|-11---------11----11-----------9------8--------|-7-7-7-7-7-7-7-7-||
|-11---------11----11-----------9------8--------|-7---------------||
|--9----------9-----8-----------7------6--------|-5---------------||
|
| ~~~
| |----3----|
| Q +E E E Q Q E E Q H
|-----------------------------------------------|-----------------||
|-----------------------------------------------|-----------------||
|--6-----(6)------------------------------------|-----------------||
|--6-----(6)--6-----5-----------4------3--------|-----------------||
|--4-----(4)--4-----3-----------2------1--------|-7---------------||
|-----------------------------------------------|-5---------------||
|
| ~~~ ~~ ~~
| |--3--| |-3-|
| Q. S T T T E S.T E. T T T e E Q H
|-----------------------------------------------|-----------------||
|---------------14----14-14-14-14-14s7----------|-----------------||
|-13-----------------------------------6--7p6p4-|-----------------||
|-----------------------------------------------|-7---------------||
|-----------------------------------------------|-----------------||
|-----------------------------------------------|-----------------||


Interlude
D/A AA D/A AA D/A D/A A A D/A Db/Ab Ab C/G E7
T T T T T T
e s s e e e s s e S S e s s e s s s s e E E S S S S E E E S S E E
|-----------------------|-----------------------|------------------------|
|-7-5-5-4-5-7-5-5-4-5-5-|-7-5-5-7-5-5-4-4-5-7-5-|-6-6-6-6-4-4-5-5-5-9-9--|
|-7-6-6-5-6-7-6-6-5-6-6-|-7-6-6-7-6-6-5-5-6-7-6-|-6-6-6-6-5-5-5-5-5-7-7--|
|-7-7-7-7-7-7-7-7-7-7-7-|-7-7-7-7-7-7-7-7-7-7-7-|-6-6-6-6-6-6-5-5-5-9-9--|
|-----------------------|-----------------------|-------------------7-7--|
|-----------------------|-----------------------|-4-4-4-4-4-4-3-3-3-0-0--|


A N.C. B BbA BbB BbA Bb
5/4 4/4
e E Q H E S S S S S S e E H e e e e e e e e
|-------------|------------------------|-7-6-5-6-7-6-5-6--|
|-5-----------|------------------------|-7-6-5-6-7-6-5-6--|
|-6-----------|------------------------|-8-7-6-7-8-7-6-7--|
|-7-----------|---7-7-8-7-5------------|------------------|
|-7-----------|-------------8-7--------|------------------|
|-5-----------|------------------------|------------------|


Ab/Eb EbEb Ab/Eb Eb Eb Eb
E S S E E S S E S S E
|----------------------------------|
|-13-11-11-10-11-13-13-11-10-10-11-|
|-13-12-12-11-12-13-13-12-11-11-12-|
|-13-13-13-13-13-13-13-13-13-13-13-|
|----------------------------------|
|-11-11-11-11-11-11-11-11-11-11-11-|


Ab Eb/G F7 Bb Ab/Eb Eb Eb Ebsus2sus4
2/4
E S S E S S E S S E S S S S S S S S S S
|----------------------------6-------|----11----11----11----11-|
|-13-13-13-11-11-11-10-10-10-6-11-11-|-12----11----10-----9----|
|-13-13-13-12-12-12--8--8--8-7-------|-13----12----11----10----|
|-13-13-13-13-13-13-10-10-10-8-------|-------------------------|
|-11-11-11-10-10-10--8--8--8-8-------|-------------------------|
|----------------------------6-------|-------------------------|


B BbA BbB BbA Bb EbBbEb Bb EbBb7EbBb BbEbBb EbBb7EbBb
4/4
T
e e e e e e e e E E E. s s s s s e E E e E S s s s s s e E
|-7-6-5-6-7-6-6---|-----------------------|------------------------|
|-7-6-5-6-7-6-5---|-8---8--6-6-8--9-8-6---|-----8---6-6-8--9-8-6---|
|-8-7-6-7-8-7-6---|-8-7-8--7-7-8-10-8-7---|-----8-7-7-7-8-10-8-7---|
|---------------8-|-8-8-8--8-8-8--8-8-8---|---8-8-8-8-8-8--8-8-8---|
|---------------8-|-6-8-6-----------------|---8-6-8----------------|
|---------------6-|---6-------------------|---6---6----------------|


BbEbBb EbBb7EbBb EbBb7EbBb EbBb7EbBb
2/4 4/4
E E E S s s s s s e E s s s s e E s s s s e E H
|-----------|---------------------------|-------------------|
|---6-8---6-|-6-8--9-8-6---6-8--9-8-6---|-6-8--9-8-6--------|
|---7-8-7-7-|-7-8-10-8-7---7-8-10-8-7---|-7-8-10-8-7--------|
|---8-8-8-8-|-8-8--8-8-8---8-8--8-8-8---|-8-8--8-8-8--------|
|---8-6-8---|---------------------------|-------------------|
|---6---6---|---------------------------|-------------------|


B A7D DbGb7Bb7 Eb Ab Eb Bb
3/4 2/4
e e e e e e e E Q E S S S S S S Q
|--------------|--------------|--------------|
|-----7-6-11---|-8--------8-8-|--9-8------6--|
|-8-6-7-4--9-7-|-8--------8-8-|--8-8------7--|
|-9-5-7-6-11-8-|-8--------8-8-|-10-8------8--|
|-9-7-5-4--9-8-|-6------------|-----------8--|
|-7-5--------6-|--------------|------10-8-6--|


Faster Q.=138
Eb Ab D7 Gm Bb5
4/4 12/8
Gtr II
2:3
E. S E E S S S S E E Q. E E H.
|------4-4-8-8-8-8-3-3-||----------------|
|-8--8-4-4-7-7-7-7-3-3-||----------------|
|-8--8-5-5-7-7-7-7-3-3-||----------------|
|-8--8-6-6-7-7-7-7-5-5-||-8----8-8-8-----|
|-6--6-6-6-5-5-5-5-5-5-||-8----8-8-8-----|
|------4-4---------3-3-||-6----6-6-6-----|


Bb5
Gtr II
<
Get this song at amazon.com      Ebay     Ringtones Ringtones  


Learn to play: Songwriting, Piano, Harmonica, Guitar
More Queen lyrics available at Muzikum

Related Queen Tabs

Hammer To Fall Solo tabs
March Of The Black Queen tabs
Teo Torriatte Let Us Cling Together tabs
Heaven For Everyone tabs
Ogre Battle tabs
Who Needs You tabs
Radio Ga Ga tabs
My Fairy King tabs
Thephets Song tabs
Innuendo tabs
Sweet Lady tabs
All Dead All Dead Bass tabs
Who Wnats To Live Forever tabs
Under Pressure tabs
Nevermore tabs
Bicycle Race tabs
Its Only Seven Days tabs
The March Of The Black Queen tabs
Bycicle Race tabs
King Of The World tabs


Guitar Tabs









All tabs are property and copyright of their owners. All tabs provided for educational purposes only. Privacy Policy, DMCA