Presidents of The Usa

Presidents of The Usa - Volcano guitar tab

|----------------------------|

|PRESIDENTS OF THE USA |

|VOLCANO |

|FROM THE SINGLE "VOLCANO" |

|----------------------------|

PLEASE RATE MY TAB AND GIVE ME CREDIT IF YOU USE OR MODIFY THIS TAB, BECAUSE

I WORKED HARD FOR IT. WRITE ME AN EMAIL IF YOU'VE GOT CORRECTIONS OR IF YOU

WANT ME TO TAB OUT YOUR FAVOURITE PRESIDENTS SONGS (It will take about a week).

ENJOY IT! EMAIL ADRESS: kalogirou@sbsd.de

standart presidents tuning:

Db

Ab

Db

Use this tuning in EVERY presidents song!!!

so here it goes:

INTRO

Db|--------------14-16-b17-14-16-b18----|

Ab|--------14-16------------------------|

Db|--14-16------------------------------|

Db|--------------14-16-b17-14-16-14-----|

Ab|--------14-16------------------------|

Db|--14-16------------------------------|

Db|--------------14-16-b17-14-16-b18----|

Ab|--------14-16------------------------|

Db|--14-16------------------------------|

Db|--------------14-16-b17-14-16-14~~~--|

Ab|--------14-16------------------------|

Db|--14-16------------------------------|

Db|-------------------------9-------9---|

Ab|--16-14-16-14-------9-11----9-11-----|

Db|--------------16-14------------------|

Db|-------------------------------------|

Ab|--11-9-7-----------------------------|

Db|-------------------------------------|

RIFF A

Db|--2-2--27-7--711-11--02-2---------|

Ab|--2-2--27-7--711-11--02-2--etc----|

Db|--2-2--27-7--711-11--02-2---------|

RIFF B

Db|--2-2-2-2--7-7-7-7--11-11-11-11--7-7-7-7--8--9-----|

Ab|--2-2-2-2--7-7-7-7--11-11-11-11--7-7-7-7--8--9-----|

Db|--2-2-2-2--7-7-7-7--11-11-11-11--7-7-7-7--8--9-----|

Db|--16--18--16--------------14-----------------------|

Ab|--------------19--14--16------16--14--12-12-12-12--|

Db|---------------------------------------------------|

its gonna blow...

Db|--9--11--9~----------------|

Ab|---------------------------|

Db|-------------9-12--9-12----|

vol-can-o

INTRO again

RIFF C (You can use an Octaver here or play it one octave higher)

Db|--------4--------9-----------11--|

Ab|------4--------9----------11-----|

Db|--4-4------9-9------11-11--------|

END

Db|--4-4-4-4-2-7-7-2-4--|

Ab|--4-4-4-4-2-7-7-2-4--|

Db|--4-4-4-4-2-7-7-2-4--|

Db|--4-2-7-2-4-44444----|

Ab|--4-2-7-2-4-44444----|

Db|--4-2-7-2-4-44444----|

Thats all for the riffs... listen to the song to get the order

|----------|

| LYRICS |

|----------|

Under the island... middle of a mountain

There is a big bad... boomin' system

Blowin' speakers... woofers and tweeters

Amplifiers... melted wires

The parties exploded... the core is corroded

Under ground... the Puget Sound

Cause a shiftin'... and a drifin'

Big black boom box...stuck in the hot rock

It's in there flowin'... it's in there growin'

You don't believe me... that this scenery

Could be a cold blooded killer

It's gonna blow... Volcano

It's gonna blow... Volcano

It's gonna blow... Volcano

Now the island is shiftin'... the plates are liftin'

The core is creamy...docile and dreamy

Stopped up and steamy

Happy campers... poop in there pampers

When the mountain... becomes a fountain

Of white hot lava... molten magna

Super sonic... plate techtonics

Stero phonic... lava and tonic

The boom is bionic

Sony shut down... magnavox meltdown

Ballistic breakdown

Hi-fi heatwave... lo-fi lava cave

That sulfur smells... Mt St Helens

Pompeii was yellin'...

It's gonna blow... Volcano

It's gonna blow... Volcano

It's gonna blow... Volcano

It's gonna blow... Volcano

Get this song at:  amazon.com sheetmusicplus.com

Share your thoughts

0 Comments found