Phish

Phish - Reba guitar tab

Reba

New Jam transcription!

>From Eric Berman (ericbe@microsoft.com)

Jam corrections from : Itay Chamiel

F Octaves:

H

E-------------------------------------

B-------------------------------------

G-------------------------------------

D---3---3---3---3---3---3---3---3-2-3-

A-------------------------------------

E-1---1---1---1---1---1---1---1-------

Eb Bb

Reba sinka boulder in the water

Eb Bb

Reba tiea cable to a tree

Eb Bb Db

Reba stuck in a game of lipstick perfume flypaper

Ab B Gb A

Reba pressa razor to a slide cross a needle

Bb Bbsus4 Bb

with a prune

Eb Bb

Knee deep in the motel tub

Db Ab*

Reba dangle ladle form her lip

G*

dip

Gb*

sip

B E

Reba babble to the nag with the lipstick perfume

D A

mutter to a farmer in a truck

(* Hit bass note (6th string) then hit the rest of the chord)

D

Take a peek at the cheetah, Reba

E Eb

cheetah on the prowl in a cage

Bb

sinka boulder in the water

Gm Bb

tiea cable to a tree

Eb

Mutter "nature" to the nag

Bb

with the lipstick perfume

Db Ab

Reba flush a fleshfarm leftover

B

thunder in a circle

F#

down the pipes

B

Bag it

F#

Tag it

C# F#

Sell it to the butcher in the store

(Hold the F# while the Bass walks down F# D# C# B A# G# F# twice)

(I'm not going to notate the bass line for what follows--sorry)

Interlude:

F# B

Reba put a stopper in the bottom of the tub

C#

picked up a jar unscrewed the top

F#

and watched it drop into the water

A little scoop of plaster mix

B

some coffee grounds and mud

C#

and then she stirred it with the ladle

F#

that her Grandmother had bought her

B

threw in apot of melted wax

F#/C#

a forefoot and a hoof

G#m

apple core, worms galore

C# F#

and a can of some corrosive

B

coconuts and chloroform

F#

some wicker and some cork

G#m

Toxic waste, some purple paste

C# F#

she hoped was not explosive

F# B

Reba dip a ladle for a taste of her creation

C#

and she knew that what she made

F#

would be the finest in the nation

Rising riff:

C# C#sus4 C#b5 C#

E---------------------

B--6--7-------8-----9-

G--6--6-------6-----6-

D--6--6-------6-----6-

A---------------------

E---------------------

Reba (Jam)

by Phish

transcribed by Kenji Julius Yamaguhchi ( mjkenji@earthlink.net )

I've tried to make it as easy as possible to read but no timing info given.

I'm sure you know how it goes. The parts indicated * may be changed to something else.

I am not so sure about those parts but should at least sound similar.

The Jam starts with...

[ 3 x ][ 3 x ] [ 5 x ]

E-------------|-------------|-------13-14-|

B-------------|-------15-16-|-16-17-------|

G-14-15-16-17-|-17-18-------|-------------|

D-------------|-------------|-------------|

A-------------|-------------|-------------|

E-------------|-------------|-------------|

PART A

The beginning of the following part is a little bit similar to

Bowie intro & Golgi Solo intro.

H H soft 4--4--4--4 slide

E--------------------------------------8------------------------------

B-5----3---4---6---6---6---5-------------10---11--9-------------------

G------3--(3)-(3)--3---3-----0---10-10--------------10---8-----9--8--

D------3---5--(5)--5---5-----------------------------------10--10-9--

A-----(3)-(3)-(3)--3---3----------------------------------------------

E---------------------------------------------------------------------

# # #

V bend up at 9 * * * * * * *

E----------------------------------------------------------------

B-------------------10--8----------------------------15--16--17--

G--8--9-----8--7----------10-8-------7--8--9-----12--15--16--17--

D--9--10----10-9---------------10----7--8--9-----12--------------

A----------------------------------------------------------------

E----------------------------------------------------------------

Immediately followed by...

V bend up at 16

E----------------------------------------------------------------

B----------------------------------------------------------------

G-17--15--------------------------------------------11---12---13-

D--------16-15-14-13-12----12---13---14---15---16----------------

A----------------------------------------------------------------

E----------------------------------------------------------------

Immediately followed by the part along w/ Page

V bend up at 17(and back down)

4--4--4--4

E--------------------------------------------------

B-17-15-----------------------------------------15-

G-------16------19--17--------13-14----------------

D----------17-----------16-17--------14--16--------

A--------------------------------------------17----

E--------------------------------------------------

3--3--3

E-----------------------17----------------------------------------------

B--------17--------17--------------15-------------------------------15--

G-16--16-----15-16----------14--14-----14-15---13-14-15-16--------------

D----------------------------------------------------------14-16--------

A----------------------------------------------------------------17-----

E-----------------------------------------------------------------------

3--3--3 * * *

E-----------------------17---------------------------13-----------------

B--------17--------17--------------15----------12-12--------------------

G-16--16-----15-16----------14--14-----14-15----------------14--12--12--

D-----------------------------------------------------------15--14--13--

A-----------------------------------------------------------------------

E-----------------------------------------------------------------------

* * *

E-----------------------15---------------

B--------15--------15--------------------

G-14--14-----13-14------------10---9--8--

D-----------------------------11--10--9--

A----------------------------------------

E----------------------------------------

Then..

E---------------------------------------------------------9-

B------------------------------------------------------11---

G-12-------------12----------12---13--------------11---11---

D------15-12----------15---------------13----15-------------

A--------(13)------------15---------------------------------

E-----------------------------------------------------------

* * * * * * *

E-------------------------------------------------------

B-7----9----11----11----11---10----12---------------14--

G-6----8----10-----9-----9----9----13--15-14-13-----14--

D-7----9----11----11----10---10-----------------15------

A-------------------------------------------------------

E-------------------------------------------------------

E----------------------------------------------------------------------

B---------------------------------12-13--------13--------13--------13--

G--------------(12)------------13---------(12)------(12)------(12)-----

D-12---13--15---13-------12-15-----------------------------------------

A---------------------14-----------------------------------------------

E----------------------------------------------------------------------

E--------------------

B-------10-----------

G---7-9----7---------

D-8----------11-10-7-

A--------------------

E--------------------

Play this twice..

E----------------------------------------------------------------

B----------------------------------------------------------------

G---------9----------8-------9----8----------9--------8----------

D------10---------10----------------------10-----7-10------------

A-8-11-------8-11-------8-11---11---10-11------8-----------------

E--------------------------------------------------------4-3-2-1-

Then, this one twice (2 fret up of above)

E--------------------------------------------------------------------------

B--------------------------------------------------------------------------

G----------11-----------10--------11----10----------11---------10----------

D-------12-----------12--------------------------12-------9-12-------------

A-10-13--------10-13--------10-13----13----12-13-------10------------------

E------------------------------------------------------------------6-5-4-3-

Then..

E-----------3---1-------4-------------4-------------6---4--

B-------3---3------3----3---3----4----3---3-------3-----3--

G-----3----(3)----------3-----4-------3-----4---3----------

D---4-----------------------------------------0------------

A-5--------------------------------5-----------------------

E----------------------------------------------------------

|:

E-------------------3---1-------4-------------

B---------------3---3------3----3---3----4----

G-------------3----(3)----------3-----4-------

D-----------4---------------------------------

A---------5--------------------------------5--

E-6-5-4-3-------------------------------------

E-4-------------4-------------6---4--

B-3---3----4----3---3-------3-----3--

G-3-----4-------3-----4---3----------

D-----------------------0------------

A------------5-----------------------

E------------------------------------

E---------------------------------------------

B-10-9----------------------------------------

G------9-10-7---10-9--10-7---9--10-7----------

D---------------------------------------------

A---------------------------------------------

E---------------------------------------------

Slide or hammer on :|

E---------------------------------------------

B-10-9----------------------------------------

G------9-10-7---9-10-9-10-9-10-9-10-9-10------

D---------------9-10-9-10-9-10-9-10-9-10------

A---------------------------------------------

E---------------------------------------------

Go back and repeat from the point indicated then go to this:

E-4-------------4----------4-------------6---4--

B-3---3----4----3---3------3---3-------3-----3--

G-3-----4-------3-----4----3-----4---3----------

D----------------------------------0------------

A------------5----------5-----------------------

E-----------------------------------------------

B6 Fmaj7

E----------------

B-7------11--11--

G-8------10--10--

D-6------11--11--

A---------9---9--

E-7--------------

E------------------------------------------------------------9-

B---------------------------------------------------------11---

G----12-------------12----------12---13--------------11---11---

D-13------15-12----------15---------------13----15-------------

A-----------(13)------------15---------------------------------

E--------------------------------------------------------------

E---------------------------------

B-7----9----11----11----11---10---

G-6----8----10-----9-----8----8---

D-7----9----11----11----10---10---

A------------9-----9-----8----8---

E---------------------------------

Play this phrase twice:

E--4--7----4--7----4-4-7---6---9----6---9---6-6--9--------------

B--3--6----3--6----3-3-6---5---8----5---8---5-5--8--------------

G--4--7----4--7----4-4-7---6---9----6---9---6-6--9--------------

D---------------------------------------------------------------

A---------------------------------------------------------------

E---------------------------------------------------------------

Then play it four frets up twice:

E--8---11----8---11---8-8--11-----10---13---10---13---10-10--13-

B--7---10----7---10---7-7--10------9---12----9---12----9--9--12-

G--8---11----8---11---8-8--11-----10---13---10---13---10-10--13-

D---------------------------------------------------------------

A---------------------------------------------------------------

E---------------------------------------------------------------

Then this descending riff:

E--14----13----12----11----14----13----12----11----

B--13----12----11----10----13----12----11----10----

G--14----13----12----11----14----13----12----11----

D--------------------------------------------------

A--------------------------------------------------

E--------------------------------------------------

E--14--13--12--11--14--13--12--11--16--15--14--13--12--11------18----

B--13--12--11--10--13--12--11--10--15--14--13--12--11--10-(15)-------

E--14--13--12--11--14--13--12--11--16--15--14--13--12--11------------

D--------------------------------------------------------------------

A--------------------------------------------------------------------

E--------------------------------------------------------------------

PART B

At 5:13 Play along with Page....

4-4-4-4

E-------------------------------6-5---7-8----------

B---------------5-----------6-8-----------5--7-8---

G-------------5-------7-5-7------------------------

D----3-7----7------------------------------------9-

A-5-------8----------------------------------------

E--------------------------------------------------

E-----------------------9----11-14-13-12-11--------12-11-16-14-------12-11-

B-----7---------7----10---12-------------------8-9-------------13-14-------

G---7---7-8---8---10------------------------11-----------------------------

D-9---------9--------------------------------------------------------------

A--------------------------------------------------------------------------

E--------------------------------------------------------------------------

E--------------

B-------14-12--

G-13-11--------

D--------------

A--------------

E--------------

E-------14----------------------------10-13-14-11----

B----------12----12----------------12-------------12-

G----11-------11----10-------11-13-------------------

D-------------------------12-------------------------

A----------------------14----------------------------

E----------------------------------------------------

E------------------------------

B---------------------------14-

G-14---13-14----13-14----------

D---------------------10-11----

A------------------------------

E------------------------------

E----------------------------------------14-

B-14--15-15--14-15-----15----15-------------

G-------------------17----16----15-13-14----

D-------------------------------------------

A-------------------------------------------

E-------------------------------------------

E-14----------------------------------

B-----16---------------------------14-

G-------16--14--13-14--13-14----------

D----------------------------16-17----

A-------------------------------------

E-------------------------------------

E--------------------------------------------------------------

B-14--15-15--14-15-----15----15-----------15----15-------------

G-------------------17----16-----15-13-14----13----17-14-15----

D-----------------------------------------------------------13-

A--------------------------------------------------------------

E--------------------------------------------------------------

(around 5:36)

E---------------------------------------------------------------

B------------------------15-13------------------15-13-----------

G----12-15--14-----13-14-------14--15-----13-14-------14--15----

D-13-----------12---------------------13---------------------13-

A---------------------------------------------------------------

E---------------------------------------------------------------

Gradually slow..

E|-----------------5-|-9-8-7-6-5-------------------------|

B|---------------7---|-----------7-5-------------------4-|

G|---12-15-14-7-7----|---------------7---------------5---|

D|-13----------------|-----------------7-4-----4-7-6-----|

A|-------------------|---------------------7-5-----------|

E|-------------------|-----------------------------------|

E|----------8-11-|----14-17-18-17-15----------|

B|---7-10-9------|-15----------------16-------|

G|-7-------------|----------------------15-18-|

D|---------------|----------------------------|

A|---------------|----------------------------|

E|---------------|----------------------------|

And repeat the whole PART B but play it half step later than page's note,

However you have to match Page's note somewhere above.

Drum solo!

Timing: Each chord represents two 16th notes. The slashes are eighth

notes and the numbers show how many eighth notes are between each chord.

Eb F

/ / / / / / / / / / / / / / / / /

1 2 3 4 5 6 7 8 1 2 3 4 5 6 7 8 9

Eb F

/ / / / / / / / / / / / /

1 2 3 4 5 6 7 8 1 2 3 4 5

Eb F

/ / / / / / / / / / / / / / / / /

1 2 3 4 5 6 7 8 1 2 3 4 5 6 7 8 9

Eb F*

/ / / / / /

1 2 3 4 5

*The last chord of the solo (F) is in the first eighth note of the

Ebmaj7 to F jam that follows.

Improv Tips

Ending riff:

C# F A C# F#maj7

E--------------------------------------------------------

B--6--7--8-9-10-11-12-13-14-15-16-17-18-19-20-21---------

G--6--6--6-6-10-10-10-10-14-14-14-14-18-18-18-18---------

D--6--6--6-6-10-10-10-10-14-14-14-14-18-18-18-18---(3)---

A--------------------------------------------------------

E---------------------------------------------------2----

Get this song at:  amazon.com sheetmusicplus.com

Share your thoughts

0 Comments found