Peter Paul And Mary

Peter Paul And Mary - Dont Think Twice guitar chord

From jwblair@ix.netcom.com Wed Feb 19 00:33:14 1997

Return-Path:

Delivered-To: dgaudet-olga@arctic.org

Received: (qmail 6431 invoked from network); 19 Feb 1997 00:33:13 -0000

Received: from nail.freedonia.com (HELO freedonia.com) (204.62.130.117)

by twinlark.arctic.org with SMTP; 19 Feb 1997 00:33:13 -0000

Received: by freedonia.com (8.7.4/duck) with ESMTP id RAA24082; Tue, 18 Feb 1997 17:12:38 -0800 (PST)

Received: (from smap@localhost)

by dfw-ix15.ix.netcom.com (8.8.4/8.8.4)

id SAA09631; Tue, 18 Feb 1997 18:30:56 -0600 (CST)

Received: from sjx-ca30-30.ix.netcom.com(204.31.235.190) by dfw-ix15.ix.netcom.com via smap (V1.3)

id sma009617; Tue Feb 18 18:30:29 1997

Message-Id:

X-Sender: jwblair@popd.ix.netcom.com

X-Mailer: Windows Eudora Pro Version 2.2 (32)

Mime-Version: 1.0

Content-Type: text/plain; charset="us-ascii"

To: guitar@olga.net, acoustic@olga.net

Subject: TAB: Don't Think Twice by PP&M

Status: RO

X-Status:

Don't Think Twice

Peter Paul and Mary

(As played by Peter Yarrow-right audio track)

Picked with the thumb and two fingers using

the following basic pattern (though Peter breaks

the pattern in various places):

--2-----------2----

--------1----------

-----T-----------T-

-------------------

--T--------T-------

Chords (capo 3):

C: 032010 (and 032013 with little finger)

G: 320003

Am: 002210

F: 133211 (barre)

G7: 320031

D7 run: 200210 (use the thumb to fret the bass F#)

200230 (just add the ring finger)

G run: 320010 (index finger)

320030 (little finger)

Here's the intro (the verses vary a little):

(Play the first note with the index finger)

C

e-|-----0-----------0-----------3-------------------------|

B-|-----------1-----------1-------------------------------|

G-|--0-----0-----------0-----------0----------------------|

D-|-------------------------------------------------------|

A-|-----3--------3-----------3----------------------------|

E-|-------------------------------------------------------|

G Am

e-|--3-----0----------------------------------------------|

B-|--------------1-----0-----1-----------1----------------|

G-|-----0-----2-----------2--------2----------------------|

D-|-----------------------------2-----------2-------------|

A-|--------0--------0--------0--------0-------------------|

E-|--3----------------------------------------------------|

F

e-|--1-----------1-----1--------1-------------------------|

B-|--------1-----------------1----------------------------|

G-|-----2-----------2-----2--------2----------------------|

D-|-------------------------------------------------------|

A-|-------------------------------------------------------|

E-|--1--------1--------1--------1-------------------------|

G7

e-|--------------0-------1-----------1--------------------|

B-|--3-------------------------3--------------------------|

G-|--------0----------------------------------------------|

D-|-----0-----------0-------0-----------0-----------------|

A-|-------------------------------------------------------|

E-|--3--------3----------3--------3-----------------------|

C G

e-|--0-----------3-----3-----------3----------------------|

B-|--------1-----------------0----------------------------|

G-|-----0-----------0-----0-----------0-------------------|

D-|-------------------------------------------------------|

A-|--3--------3-------------------------------------------|

E-|--------------------3--------3-------------------------|

Am

e-|--0----------------------------------------------------|

B-|--------1-----0-----1---------1------------------------|

G-|-----2--------------------2----------------------------|

D-|-----------------2-----2--------2----------------------|

A-|--0--------0--------0-------0--------------------------|

E-|-------------------------------------------------------|

D7 run

e-|-------------------------------------------------------|

B-|-----1-----------0-----------1-----------3-------------|

G-|-----------2-----------2-----------2-------------------|

D-|--------0-----------0-----------0-----------0----------|

A-|-------------------------------------------------------|

E-|--2-----------2-----------2-----------2----------------|

G

e-|--------------------------------0----------------------|

B-|--0-----------1-----3----------------------------------|

G-|--------0-----------------0--------0-------------------|

D-|-----0-----------0-----0-------------------------------|

A-|-------------------------------------------------------|

E-|--3--------3--------3--------3-------------------------|

C

e-|--0-----------------------------------0-----------0----|

B-|--------1-----1-----1-----1-----3-----------1----------|

G-|-----0-----------0-----0-----------0-----0-----------0-|

D-|-------------------------------------------------------|

A-|--3--------3--------3--------3--------3--------3-------|

E-|-------------------------------------------------------|

C7 F

e-|--0-----------0-----1-----------1-----1-----------1----|

B-|--------1-----------------1-----------------1----------|

G-|-----3-----------3-----2-----------2-----2-----------2-|

D-|-------------------------------------------------------|

A-|--3--------3-------------------------------------------|

E-|--------------------1--------1--------1--------1-------|

D7

e-|--0-----------------0-----------0----------------------|

B-|--------1-----3-----------1----------------------------|

G-|-----2-----------2-----2-----------2-------------------|

D-|-------------------------------------------------------|

A-|-------------------------------------------------------|

E-|--2--------2--------2--------2-------------------------|

C G

e-|--3-----------3-----3-----------3----------------------|

B-|--------1-----------------0----------------------------|

G-|-----0-----------0-----0-----------0-------------------|

D-|-------------------------------------------------------|

A-|--3--------3-------------------------------------------|

E-|--------------------3--------3-------------------------|

Am F

e-|--0---------0-----1-----------1------------------------|

B-|-------0h1--------------1------------------------------|

G-|-----2---------2-----2-----------2---------------------|

D-|-------------------------------------------------------|

A-|--0----------------------------------------------------|

E-|------------------1--------1---------------------------|

C G

e-|-----0-----------3-----3-----------3-------------------|

B-|-----------1-----------------0-------------------------|

G-|--------0-----------0-----0-----------0----------------|

D-|-------------------------------------------------------|

A-|--3-----------3----------------------------------------|

E-|-----------------------3--------3----------------------|

C G

e-|--0-----------3-----3-----------3----------------------|

B-|--------1-----------------0----------------------------|

G-|-----0-----------0-----0-----------0-------------------|

D-|-------------------------------------------------------|

A-|--3--------3-------------------------------------------|

E-|--------------------3--------3-------------------------|

Well it

C G Am etc...

e-|--0-----------0-----3-----------3----------------------|

B-|--------1-----------------0----------------------------|

G-|-----0-----------0-----0-----------0-------------------|

D-|-------------------------------------------------------|

A-|--3--------3-------------------------------------------|

E-|--------------------3--------3-------------------------|

aint no use to sit and wonder why babe

Paul plays something else on the left audio track. Paul usually doesn't use

a capo when he plays. He has these huge hands that seem to span about 12

frets on his relatively small guitar.

Get this song at:  amazon.com sheetmusicplus.com

Share your thoughts

0 Comments found