Pedro The Lion

Pedro The Lion - Secret Of The Easy Yoke guitar tab

"Secret of the Easy Yoke" |

by Pedro the Lion |

(c)1998 Juan the Owl Music |

tabbed by Tay McNabb |

_____________________________________/

I figured this out from a live version of the song, so it's

not exactly like the album. It's pretty close, though.

I'm not putting in every note, just the chord changes. You

should be able to figure it out.

===========================================================

INTRO

d|--12---12---12---12---12---12---12---12---12--|

a|---9---10----9---10----9----7----9---10----7--| 3x

D|---9----9----9----0----0----7----7----7----7--|

I could hear the church bells ringing...

d|--12---12---12---12---12---12---9--|

a|---9---10----9---10----9----7---5--| 4x

D|---9----9----9----0----0----7---5--|

Could someone please tell me the story...

d|--5---5---12---12--|

a|--2---5----9----9--|

D|--2---5----9----0--|

I still have never seen You...

d|--5---9---7---5---12---11---9--|

a|--2---5---5---5----9----7---5--|

D|--2---5---5---5----9----7---5--|

AFTER THAT IS ANOTHER VERSE AND CHORUS, SO JUST REPEAT

EVERYTHING UP TO THIS POINT BEFORE GOING INTO THE BRIDGE:

If this is only a test...

d|--5---7---12---5---14---16---5---7--|

a|--5---7----9---5---12---12---5---7--|

D|--5---7----9---5---11----0---5---7--|

THEN THE LONG SPACE WITH THE "Peace, be still"S:

d|-----------------------|

a|-----------------------| 5x

D|--5---7---12---11---4--|

g|----------------9---2--|

d|----------------0---0--|

a|-----------------------| 1x

D|--5---7---12---11---4--|

g|--4---6---11----9---2--|

d|--0---0----0----0---0--|

a|-----------------------| a bunch of times

D|--5---7---12---11---4--|

THEN TO END YOU PLAY THIS:

g|--4---6---7----9---10---2---4---6---11--|

d|--0---0---0----0----0---0---0---0----0--|

a|----------------------------------------|

D|--5---7---9---12---12---4---5---7----5--|

THE LAST NOTE IS A REAL STRETCH, BUT YOU CAN PAUSE BEFORE

YOU PLAY IT, SO YOU CAN HAVE TIME TO MOVE YOUR HAND TO

THE POSITION.

Get this song at:  amazon.com sheetmusicplus.com

Share your thoughts

0 Comments found