Pavel Stratan

Pavel Stratan - eu beu #solo guitar tab

Artist: Pavel Stratan

Album: Amintiri din copilarie

Transpunere: Andrei STANESCU [ reydan_ro@yahoo.com ]

Url: www.acorduri.tk

INTRO:

e|----------------------------------------------------------------

B|----------------------------------------------------------------

G|----------------------------------------------------------------

D|-----------------------------------------------------2----------

A|-------2-3-5-5--3h5-3---2--3-5-----------2--3-3--3-5---5-3-2----

E|-5---5----------------5----------3-3--5----------------------5--e|----------------------------------------------------------------

B|----------------------------------------------------------------

G|----------------------------------------------------------------

D|--------------------------------------2--3--2-2--2h3-2----------

A|-----2-3-5-5--3h5-3---2--3-5---5-5-5--------------------5--3----

E|-3-5----------------5-------------------------------------------

* Ascultati melodia pentru a prinde ritmul

* Cei care doresc pot inlocui in intro tasta 5 pe coarda Mi gros

(a sasea coarda) cu coarda La (a cincea coarda) lovita liber.

* Intro-ul cred ca se repeta si pe versuri, nu prea se aude bine in melodie

*** Transpunerea de pe versuri este a lui Mentor [ mentor@go.ro ],

*** dar m-am gandit sa fac un tab complet si am inclus-o aici.

Acordurile pe versuri, refren, orice o fi: Am Dm G C

Am Dm

Eu beu putin, putin cate putin

G C

Pan’ capul meu pe umeri nu mai pot sa-l tin

Am Dm G

Si am sa beu atata pana cand am sa aflu cine poate sa-mi spuie

C

Cat sa beu sa fie numai bine.

Cand dau incet sa ma indrept

Genunchii-mi cad pe langa piept

Eu n-am stiut ca daca esti beat

Te faci deodata acrobat

Sa sada toti cum eu sa sez’

Sa vaza toti ce eu am vaz’

Sa-si unga toti cum eu mi-am uns cu grija gatul indeajuns

Ma tin de toti si stau in bar, be cel mai tare de pahar

Eu inca nimeresc sa torn cu toate ca aproape dorm

Dar daca nu dorm inseamna ca-s treaz si-afara inca-i az’

Eu pot sa ma tin si-ntr-un picior c-o mana daca-s pe ulcior

Dar eu mai beu..

Refren:..

Ce interesant se uita toti la mine cum eu ma-nvat

Cu mana dreapta sa ma indrept spre buzunarul de la piept

E drept ca daca beau mai des, mai des ma trage sa fumez

Fumez si iara dupa ce fumez, incep sa beau mai des

Eu nu stiu unde mai incape atata vodca si lichior

Si nu stiu toti de ce se uita de parca as bea de banii lor

Da’ eu ma fac ca nu fac nimica si nici nu stiu ca ei ma stiu

Si eu cand am sa fiu ca dansii, eu tot ca dansii am sa fiu

Dar eu mai beu..

Refren:..

Eu nu stiu bine pentru altii ce inseamna da’ eu stiu

Ca beau ce vreau, mananc ce vreau, ma culc cu cine vreau si-s viu

Si daca imi spune cineva cum ar pute’ sa-mi fie mai bine

Ma las de toate, ma duc acolo, ma intorc inapoi, ma iau si pe mine

Dar eu mai stau acolo unde inchide ca sa sed

Unde ma uit si nu vad nimica da’ pe mine toti ma vad

Cum beau putin da des si mai ales de ‘cela care-am vrut

Si daca am uitat sa ma uit ce beau ma uit si-o iau de la inceput

Dar eu mai beau…

SOLO:

* Unele acorduri sunt puse in paranteza…pt ca e cam greu sa scriu

tot ritmul pentru ele. Asa ca ascultati melodia pentru a-l prinde

* In mare parte pentru acordurile care nu sunt in paranteza..incercati

sa loviti corzile de jos in sus, suna mai bine dupa parerea mea

e|----------------------------------|

B|----------------------------------|

G|-7-7-7(5)(4)/(5)/(7)--4-5-5/(7)-|

D|-9-9-9(7)(5)/(7)/(9)--5-7-7/(9)-| x2

A|-9-9-9(7)(5)/(7)/(9)--5-7-7/(9)-|

E|----------------------------------|e|-------------------------------------------|

B|-------------------------------------------|

G|--9-10-10/(12)(10)(-9)(7)---9-10--9-7-5-|

D|-10-12-12/(14)(12)(10)(9)--10-12-10-9-7-|

A|-10-12-12/(14)(12)(10)(9)--10-12-10-9-7-|

E|-------------------------------------------|

e|----------------------------------|

B|----------------------------------|

G|-7-7-7(5)(4)/(5)/(7)--4-5-5/(7)-|

D|-9-9-9(7)(5)/(7)/(9)--5-7-7/(9)-|

A|-9-9-9(7)(5)/(7)/(9)--5-7-7/(9)-|

E|----------------------------------|

Repetati in ordinea asta pana se termina melodia…

EOF

Get this song at:  amazon.com sheetmusicplus.com

Share your thoughts

0 Comments found