Parliament

Parliament - P-funk Wants To Get Funked Up Bass guitar tab

artist: Parliament

Song: P-Funk (Wants o Get Funked Up)

Tabbed By: FLIP

I Transcribed only the main bass line - The chorus one, cause if you'll

catch this one You'll be able to groove with your own variations:)

G-------------------------------------10p9---7---------|

D----------------------------------------------9-7/----|

A--------------5---------------------------------------|

E-x7-7-0-7-5-7---x7----0-7-0-7-5-7---------------------|

G-------------------------------------7--------|

D------------------------------9-7-9---9-7--9--|

A-------------5--------------------------------|

E-0-7-7-7-5-7---x7---0-5-0-7-------------------|

G-------------------------10p9-7-9-7-----------------------|

D------------------------------------9-9/------------------|

A-----------------5----------------------------------------|

E-07-0-7-7--7-5-7---x7------------------------3/7--x1/5----|

G-------------------------------------------------|

D-------------------------------------------------|

A-----------------5-------------------------------|

E--5h7-x7-7-7-5-7---x7----5h7--x7-7-7-5-x7--------|

"Well alright" if you'll know how to play this, you be able to groove with the

so as one funky transcriber said: "Put on your nastiest funk face, and groove with this" ;)

If You have a better version, or corrections etc. mail me duuude;)

webmaster at tabs-database.com.com oh, and sory for my english one more time;) I'm From Poland Pozdro

i szyjcie na basie gdzie tylko da siê;)Added by tabs-database.com and our distinguished partners

Get this song at:  amazon.com sheetmusicplus.com

Share your thoughts

0 Comments found