Paramore

Paramore - Whoa guitar tab

Artist: Paramore

Tab: Whoa

Tab by Claudio Lluberes

If you find something wrong in the tab please let me know :D

webmaster at tabs-database.com.com

You have to hear the song to figure it out cuz i was too

lazzy and i made this tab by the shorter way :D so i hope

you can understand

Intro/Verse

Guitar 1

E------------------|-----------------------------------|

B------------------|-----------------------------------|

G-4-----6-----13---|-4----6----13----13--11------------|

D-x-----x------x---|-x----x-----x----x----x------------|

A-2-----4-----11---|-2----4----11----11---9------------|

E------------------|-----------------------------------|

Guitar 2

palm muting

E--------------------------------------------------|

B--------------------------------------------------|

G--------------------------------------------------|

D--6--------2--------------------------------------|

A--6-(11x)--2-(11x)--------------------------------|

E--4--------0--------------------------------------|

..... ......

Guitar 3

I´ve hove for change but i still the same...

you have to hear the song to figure it out..

E--------------------------------------------------|

B--------------------------------------------------|

G--13---9---11-------------------------------------|

D---x---x---x--------------------------------------|

A--11---7---9--------------------------------------|

E--------------------------------------------------|

Paause...

Chorus

Guitar 1

E-----------14----------12-------------------------|

B------12------------12----------------------------|

G--13-------------13-------------------------------|

D--------------------------------------------------|

A--------------------------------------------------|

E--------------------------------------------------|

Guitar 2

E--------------------------------------------------|

B--------------------------------------------------|

G--------------------------------------------------|

D-6--------7-----------2-xx-2-xx-2-xx--2-xx--6-----|

A-6-(11x)--7-(11x)-----2-xx-2-xx-2-xx--2-xx--6-----|

E-4--------5-----------0-xx-0-xx-0-xx--0-xx--2-----|

Back to the intro/verse

Bridge

Guitar 1

E--------------------------------------------------|

B--------------------------------------------------|

G-13-----9-----11----------------------------------|

D--x-----x------x----------------------------------|

A-11-----7------9----------------------------------|

E--------------------------------------------------|

Guitar 2

E--------------------------------------------------|

B--------------------------------------------------|

G--------------------------------------------------|

D-7--------2--------6------------------------------|

A-7-(12X)--2-(12X)--6-(12X)------------------------|

E-5--------0--------4------------------------------|

SOlo

with a weird effect

E-------------------------------------------------------|

B-99999999--77777777--1212121212121212-1010101010101010-|

G-------------------------------------------------------|

D-------------------------------------------------------|

A-------------------------------------------------------|

E-------------------------------------------------------|

end with

E--------------------------------------------------|

B--9(vibrato)--------------------------------------|

G--------------------------------------------------|

D--------------------------------------------------|

A--------------------------------------------------|

E--------------------------------------------------|

interlude

¨we´ve got everyvody´s singing¨

Guitar 2

E--------------------------------------------------|

B--------------------------------------------------|

G--------------------------------------------------|

D-6----------7-------------------------------------|

A-6----------7-------------------------------------|

E-4----------5-------------------------------------|

Both Guitars

E--------------------------------------------------|

B--------------------------------------------------|

G--------------------------------------------------|

D-xx-2-xx-2-xx-2-xx-2-x----------------------------|

A-xx-2-xx-2-xx-0-xx-2-x----------------------------|

E-xx-0-xx-0-xx-0-xx-0-x----------------------------|

next goes chorus

End with bridge with the SOlo...

Added by tabs-database.com and our distinguished partners

Get this song at:  amazon.com sheetmusicplus.com

Share your thoughts

0 Comments found