Paramore

Paramore - When It Rains guitar tab

TUNING - eb Bb Gb Db Ab Eb

Intro-

1.Guitar1 - C#m 2x delay

2.Guitar1 - A C#m-E A B-C#m 2X E

Guitar2

|------12---12---14---1416---|------12----12-----------------|

|-10h12--12---12----12----12-|-10h12---12----12-10-12-10--9--|

|----------------------------|-------------------------------|

|----------------------------|-------------------------------|2x

|----------------------------|-------------------------------|

|----------------------------|-------------------------------|

Verse- C#m A E 2X

And when it rains,

On this side of town it touches, everything.

Just say it again and mean it.

We don't miss a thing.

Refrain-

F#m E

You made yourself a bed at the bottom of the blackest hole (blackest hole)

F#m E

And convinced yourself that it's not the reason you don't see the sun anymore.

Chorus-

A C#m E

And oh, oh, how could you do it?

A B C#m

Oh I, I never saw it coming.

A C#m E

And oh, oh, I need the ending.

A B C#m E

So why can't you stay just long enough to explain?

Do Verse

And when it rains,

Will you always find an escape?

Just running away,

Do refrain

From all of the ones who love you, from everything.

You made yourself a bed at the bottom of the blackest hole (blackest hole)

And you'll sleep 'til May and you'll say that you don't wanna see the sun anymore.

Do Chorus-

And oh, oh, how could you do it?

Oh I, I never saw it coming.

And oh, oh, I need the ending.

So why can't you stay just long enough to explain?

Take your time.

Take my time.

Bridge-

F#m E A

Take these chances to turn it around. (take your time)

F#m E A

Take these chances, we'll make it somehow

F#m E A

And take these chances to turn it around. (take my...)

Just turn it around.

Bridge end-

|-9----|

|--9-10|

|------|

|------|

|------|

|------|

Do chorus 1x

Oh, how could you do it?

Oh I, I never saw it coming.

Do chorus 3x

Oh, oh, how could you do it?

Oh I, I never saw it coming.

Oh, oh, how could you do it?

Oh I, I never saw it coming.

Oh, oh I need an ending.

So why can't you stay just long enough to explain?

F#m E

You can take your time,

A

Take my time.

GUITAR2 END

|-121212121212-16161616161616-|------------|

|-----------------------------|------------|

|-----------------------------|-2-2-2------|

|-----------------------------|-2-2-2------|

|-----------------------------|-0-0-0------|

|-----------------------------|------------|

Added by tabs-database.com and our distinguished partners

Get this song at:  amazon.com sheetmusicplus.com

Share your thoughts

0 Comments found