Paramore

Paramore - When It Rains Bass guitar tab

-------------------------------------------------------------------------------

When It Rains - Paramore

-------------------------------------------------------------------------------

Tabbed By: Valerie L.

e-mail: webmaster at tabs-database.com.com

Tuning: E Flat

Chorus

G|---------------------------------------------| |------|

D|---------------------------------------------| |------|

A|---------3---3-666666-----------------33333--| |------|

E|55555555---5----------55555555-7-5-7---------| x2 |-0~---|

Verse "And when it rains..."

G|------------------------------------|

D|------------------------------------|

A|3333333333333333--------------------|

E|-----------------55555555-00000000--| x2

Pre-Chorus "We don't miss a thing..."

G|----------------------------------------------------------|

D|----------------------------------------------------------|

A|----------------------------------6p5-3-1-----------------|

E|2222222222222222-0000000000000000---------222222222222222-|

G|--------------------------|

D|----------8----8888-------|

A|------------66------------|

E|000000000-----------------|

Chorus x2

Verse x2

Pre-Chorus x1

Chorus x2

Bridge "Take my time..."

G|---------------------------------------------------|

D|---------------------------------------5-6---5-----|

A|-------------------------------------6-----6---6---|

E|2-2-22-2-2-2-0-0-0-00-0-0-5-5-55-5-5---------------|

G|-----------------------------------------|

D|-----------------------------------------|

A|---------------------------4~--4~--4~----|

E|2-2-22-2-2-2-0-0-0-00-0-0----------------|

Rest

G|----------------|

D|----------------|

A|1111--33333-----|

E|----------------|

Chorus x4

Outro "You can take your time..."

G|-----------------------|

D|-----------------------|

A|-----------------------|

E|2~---0~----5-5-5-5~----|

Added by tabs-database.com and our distinguished partners

Get this song at:  amazon.com sheetmusicplus.com

Share your thoughts

0 Comments found