Paramore

Paramore - Stop This Song Bass guitar tab

-------------------------------------------------------------------------------

Stop This Song (Lovesick Melody)- Paramore

-------------------------------------------------------------------------------

Tabbed By : dvanwyk

e-mail: webmaster at tabs-database.com.com

Tuning:Drop D

Intro/Chorus x2 (1's not 11's)

G|-----------------------------------|

D|-----------------------------------|

A|33333333---------------------------|

D|--------6666666655555555-11111111--|

Verse x4 (1's not 11's),(Only play the last note at the end of the 4th time)

G|-----------------------------------------------|

D|-----------------------------------------------|

A|33---33-----66----66---66----66------1111--3~--|

D|--55---55-66---66----55---55----1111-----------|

Pre-chorus x1

G|--------------------------------------------------------------------------------------|

D|------------3p1-----------------------------------------------------------------------|

A|---66-66-3~----3---1~-----------------------------------------------------------------|

D|6~--------------1~--------------------------------------------------------------------|

Chorus x2

Verse x4

Pre-chorus x1

G|--------------------------------------------------------------------------------------|

D|------------3p1-----------------------------------------------------------------------|

A|---66-66-3~----3---1~-----------------------------------------------------------------|

D|6~--------------1~--------------------------------------------------------------------|

This is the second part of the pre-chorus.(only do it at the second pre-chorus.

G|--------------------|

D|--------------------|

A|--------------------|

D|6~-7\\~-5~-6~-3~-1~--|

Chorus x4

Bridge x2(1's not 11's)

G|-------------------------------------------------|

D|-------------------------------------------------|

A|------------33-33-33-33-------------------11-11--|

D|66-66-66-66-------------11-11-11-11-33-33--------|

Breakdown

G|-----------------------|

D|666666666666666666666--|

A|-----------------------|

D|-----------------------|

Chorus x4

Verse x2(Wait for the pause)

| / slide up

| \\ slide down

| h hammer-on

| p pull-off

| ~ vibrato

| + harmonic

| x Mute note

===============================================================================Added by tabs-database.com and our distinguished partners

Get this song at:  amazon.com sheetmusicplus.com

Share your thoughts

0 Comments found