Paramore

Paramore - Riot (album) guitar tab

Paramore-RIOT Album

"For a Pessimist, I'm Pretty Optimistic" - 3:48

"That's What You Get" - 3:40

"Hallelujah" - 3:23

"Misery Business" - 3:31

"When It Rains" - 3:35

"Let the Flames Begin" - 3:18

"Miracle" - 3:29

"Crushcrushcrush" - 3:09

"We Are Broken" - 3:38

"Fences" - 3:19

"Born For This" - 3:58

|--------------------------------------------------------------------------|

For A Pessimist Im Pretty Optimistic

|--------------------------------------------------------------------------|

Guitar 1 - { e b g d A D )

Guitar 2 - { e b g d A D )

Intro 2x

Guitar1

|------------------------------------------|

|------------------------------------------|

|--444444---------------------666666-------|

|--444444---444444---111111---666666-------|

|--222222---444444---111111---444444-------|

|-----------444444---111111----------------|

|--------------------------------|

|--------------------------------|

|--444444------------666666666---|

|--444444---444444---666666666---|

|--222222---444444---444444444---|

|-----------444444---------------|

Guitar2

|------------------|---------------------|

|------------------|---------------------|

|--12-12/15151515--|--1111/10101010------|

|--x--x---x-x-x-x--|--x-x--x-x-x-x-------|

|--14-14/13131313--|--9-9-/8-8-8-8-------|

|------------------|---------------------|

|------------------|---------------------|

|------------------|---------------------|

|--12-12/15151515--|--181818181818-------|

|--x---x-x-x-x-x---|--x-x-x-x-x-x--------|

|--14-14/13131313--|--161616161616-------|

|------------------|---------------------|

Verse-

G1

|--------------|------------------|

|--------------|------------------|

|--------------|--4444444444444---|

|---4~---------|--4444444444444---|

|---4~---------|--2222222222222---|

|---4~---------|------------------|

G2

|--------------|------------------|

|--------------|------------------|

|--------------|--4444444444444---|

|--------------|--4444444444444---|

|--------------|--2222222222222---|

|--------------|------------------|

Verse2

Guitar1

|--------------------------------|-----|---------------|--------|

|--------------------------------|-----|---------------|--------|

|--------------------------------|-----|---------------|--6--6--|

|-44-444-444-444-466-666-666-666-|-1-1-|---------------|--6--6--|

|-44-444-444-444-466-666-666-666-|-1-1-|---------------|--4--4--|

|-44-444-444-444-466-666-666-666-|-1-1-|---------------|--------|

Guitar2

|--------------------------------|-----|---------------|--------|

|--------------------------------|-----|---------------|--------|

|--------------------------------|-----|-8888/10101010-|--6--6--|

|-44-444-444-444-466-666-666-666-|-1-1-|-8888/10101010-|--6--6--|

|-44-444-444-444-466-666-666-666-|-1-1-|-6666/9-9-9-9--|--4--4--|

|-44-444-444-444-466-666-666-666-|-1-1-|---------------|--------|

Refrain-

Not sure if this part

Guitar2

1.

|------6---|

|-----7----|

|----8-----|

|----8-----|

|---6------|

|----------|

2.

|------18--|

|--18------|

|----------|

|----------|

|----------|

|----------|

Chorus-

Guitar1

|-----------------|------------------------|

|-----------------|------------------------|

|-444-6666-888888-|-444-6666---------------|

|-444-6666-888888-|-444-6666-666666--------|

|-222-4444-666666-|-222-4444-666666--------|

|-----------------|----------666666--------|

|-----------------|------------------------|

|-----------------|------------------------|

|-444-6666-888888-|-444-6666---------6-6-6-|

|-444-6666-888888-|-444-6666-444444--6-6-6-|

|-222-4444-666666-|-222-4444-444444--4-4-4-|

|-----------------|----------444444--------|

Guitar2

|-----------------------------|-------------------------------|

|-----------------------------|-------------------------------|

|-888-10101010-11111111111----|---888--11111111-131313131313--|

|-xxx-x-x-x-x--x-x-x-x-x-x----|---xxx--xxxxxxx--xxxxxxxxxxxx--|

|-666-8-8-8-8--9-9-9-9-9-9----|---666--9-9-9-9--111111111111--|

|-----------------------------|-------------------------------|

|-----------------------------|-----------------------------|-------|

|-----------------------------|-----------------------------|-------|

|-888-10101010-111111111111---|---888-10101010-111111111111-|-6-6-6-|

|-xxx-x-x-x-x--x-x-x-x-x-x----|---xxx-xxxxxxx--xxxxxxxxxxx--|-x-x-x-|

|-666-8-8-8-8--9-9-9-9-9-9----|---666-8-8-8-8--9-9-9-9-9-9--|-4-4-4-|

|-----------------------------|-----------------------------|-------|

Continued..

Guitar1

|------------------------------------------|

|------------------------------------------|

|--444444---------------------666666-------|

|--444444---444444---111111---666666-------|

|--222222---444444---111111---444444-------|

|-----------444444---111111----------------|

|--------------------------------|

|--------------------------------|

|--444444------------666666666---|

|--444444---444444---666666666---|

|--222222---444444---444444444---|

|-----------444444---------------|

Guitar2

|------------------|---------------------|

|------------------|---------------------|

|--12-12/15151515--|--1111/10101010------|

|--x--x---x-x-x-x--|--x-x--x-x-x-x-------|

|--14-14/13131313--|--9-9-/8-8-8-8-------|

|------------------|---------------------|

|------------------|---------------------|

|------------------|---------------------|

|--12-12/15151515--|--181818181818-------|

|--x---x-x-x-x-x---|--x-x-x-x-x-x--------|

|--14-14/13131313--|--161616161616-------|

|------------------|---------------------|

Repeat verse 1&2,refrain,chorus

Bridge-P.M.

Guitar1

|------------------------------------------|

|------------------------------------------|

|------------------------------------------|

|-1111111-3333-4444-9999-8888-6666-3333----|

|-1111111-3333-4444-9999-8888-6666-3333----|

|-1111111-3333-4444-9999-8888-6666-3333----|

|------------------------------------------|

|------------------------------------------|

|------------------------------------------|

|-1111-3333-4444-6666-9999-8888-6666-3333--|

|-1111-3333-4444-6666-9999-8888-6666-3333--|

|-1111-3333-4444-6666-9999-8888-6666-3333--|

Continued-

Guitar1

|-----------------------------------------------------| |------|

|------------------------9-----12-----11------9-------| |------|

|---8-----10-----11-----------------------------------|2x |------|

|-----------------------------------------------------| |--4~--|

|-----------------------------------------------------| |--4~--|

|-----------------------------------------------------| |--4~--|

Guitar2

|-----------------------------------------------------| |------|

|--------------------------------------------------9--| |------|

|-8-11p8-8-11p8-8-11p8-8-11p8-8-11p8-8-11p8-8-11p8----|2x |------|

|-----------------------------------------------------| |--4~--|

|-----------------------------------------------------| |--4~--|

|-----------------------------------------------------| |--4~--|

Outro-

Guitar1

|------------------------------------------|

|------------------------------------------|

|--444444---------------------666666-------|

|--444444---444444---111111---666666-------|

|--222222---444444---111111---444444-------|

|-----------444444---111111----------------|

|--------------------------------|

|--------------------------------|

|--444444------------666666666---|

|--444444---444444---666666666---|

|--222222---444444---444444444---|

|-----------444444---------------|

Guitar2

Guitar2

|------------------|---------------------|

|------------------|---------------------|

|--12-12/15151515--|--1111/10101010------|

|--x--x---x-x-x-x--|--x-x--x-x-x-x-------|

|--14-14/13131313--|--9-9-/8-8-8-8-------|

|------------------|---------------------|

|------------------|---------------------|

|------------------|---------------------|

|--12-12/15151515--|--181818181818-------|

|--x---x-x-x-x-x---|--x-x-x-x-x-x--------|

|--14-14/13131313--|--161616161616-------|

|------------------|---------------------|

Continued...

Guitar1

|-----------------|------------------|

|-----------------|------------------|

|-444-6666-888888-|-444-6666---------|

|-444-6666-888888-|-444-6666-444444--|

|-222-4444-666666-|-222-4444-444444--|

|-----------------|----------444444--|

|-----------------|------------------------|

|-----------------|------------------------|

|-444-6666-888888-|-444-6666---------------|

|-444-6666-888888-|-444-6666-666666--------|

|-222-4444-666666-|-222-4444-666666--------|

|-----------------|----------666666--------|

|-----------------|------------------|

|-----------------|------------------|

|-444-6666-888888-|-444-6666---------|

|-444-6666-888888-|-444-6666-444444--|

|-222-4444-666666-|-222-4444-444444--|

|-----------------|----------444444--|

Guitar2

|-----------------------------|-----------------------------|

|-----------------------------|-----------------------------|

|-888-10101010-111111111111---|---888-10101010-111111111111-|

|-xxx-x-x-x-x--x-x-x-x-x-x----|---xxx-xxxxxxx--xxxxxxxxxxx--|

|-666-8-8-8-8--9-9-9-9-9-9----|---666-8-8-8-8--9-9-9-9-9-9--|

|-----------------------------|-----------------------------|

|-----------------------------|-------------------------------|

|-----------------------------|-------------------------------|

|-888-10101010-11111111111----|---888--11111111-131313131313--|

|-xxx-x-x-x-x--x-x-x-x-x-x----|---xxx--xxxxxxx--xxxxxxxxxxxx--|

|-666-8-8-8-8--9-9-9-9-9-9----|---666--9-9-9-9--111111111111--|

|-----------------------------|-------------------------------|

|-----------------------------|-----------------------------|

|-----------------------------|-----------------------------|

|-888-10101010-111111111111---|---888-10101010-111111111111-|

|-xxx-x-x-x-x--x-x-x-x-x-x----|---xxx-xxxxxxx--xxxxxxxxxxx--|

|-666-8-8-8-8--9-9-9-9-9-9----|---666-8-8-8-8--9-9-9-9-9-9--|

|-----------------------------|-----------------------------|

End

G1

|----------|------------|

|----------|------------|

|----------|------------|

|---1~-----|----3~------|

|---1~-----|----3~------|

|---1~-----|----3~------|

G2

|----------|------------|

|----------|------------|

|---8~-----|---10~------|

|---x------|---x--------|

|---6~-----|---8~-------|

|----------|------------|

Thats What You Get Tab

|--------------------------------------------------------------------------|

Thats What You Get

|--------------------------------------------------------------------------|

Guitar1- {eb bb gb db Ab Eb}

Guitar2- {eb bb gb db Ab Eb}

Intro-

Guitar1

|---------------------------------------------|

|---------------------------------------------|

|---------------------------------------------|

|-7-7-7-xxxx-7-7-7-xxxx-9-9-9--xxxx-111111-9--|2x

|-7-7-7-xxxx-7-7-7-xxxx-9-9-9--xxxx-111111-9--|

|-5-5-5-xxxx-5-5-5-xxxx-7-7-7--xxxx-9-9-9--7--|

Guitar2

|-----------------------------------------------------|

|-----------------------------------------------------|

|--------11/13---------13/16--------16/18--131313/11--|2x

|-111111-x/-x---111111-x-/x--131313-x-/x---x-x-x-/x---|

|-111111-9/-11--111111-11/14-131313-14/16--111111/9---|

|-9-9-9--------9-9-9--------111111--------------------|

Verse-

Guitar1 P.M.

|--------------------------------|

|--------------------------------|

|--------------------------------|

|-7-7-7--7-7-7---9-9-9---101010--|4x

|-7-7-7--7-7-7---9-9-9---101010--|

|-5-5-5--5-5-5---7-7-7---9-9-9---|

Guitar2(not sure}

|---7---|---7---|----7----|---7-----|

|---7---|---7---|----7----|---7-----|

|---8---|---8---|----8----|---8-----|

|-------|-------|---------|---------|2x

|-------|-------|---------|---------|

|-------|-------|---------|---------|

Continued...

Guitar1

|---------------------------------------------|

|---------------------------------------------|

|---------------------------------------------|

|-7-7-7-xxxx-7-7-7-xxxx-9-9-9--xxxx-111111-9--|

|-7-7-7-xxxx-7-7-7-xxxx-9-9-9--xxxx-111111-9--|

|-5-5-5-xxxx-5-5-5-xxxx-7-7-7--xxxx-9-9-9--7--|

Guitar2

|-----------------------------------------------------|

|-----------------------------------------------------|

|--------11/13---------13/16--------16/18--131313/11--|

|-111111-x/-x---111111-x-/x--131313-x-/x---x-x-x-/x---|

|-111111-9/-11--111111-11/14-131313-14 /16--111111/9---|

|-9-9-9--------9-9-9--------111111--------------------|

REPEAT Verse

Pre-chorus

G1

|----|

|----|

|----|

|-2~-|

|-2~-|

|-0~-|

G2

|----|

|----|

|-9~-|

|-9~-|

|-7~-|

|----|

Chorus-

Guitar1

|--------------------------------|

|--------------------------------|

|--------99999--6666--44444------|

|-77777--99999--6666--44444------|

|-77777--77777--4444--22222------|

|-55555--------------------------|

Guitar2

|-1616-----1616------------------|--1616-----1616----1414-----1414------|

|-----1717------1717-16-17-16----|-------1717----1717----1212------1212-|

|----------------------------16--|--------------------------------------|

|--------------------------------|--------------------------------------|

|--------------------------------|--------------------------------------|

|--------- ----------------------|--------------------------------------|

GUITAR1

|--------------------------------|

|--------------------------------|

|--------999999--4444444444------|

|-77777--999999--4444444444------|

|-77777--777777--2222222222------|

|-55555--------------------------|

GUITAR2

|-16-16-----16-16------------------|--14-14-----14-14-----------------|

|-----17-17------17-17-16-17-16----|-------12-12-----12-12------------|

|------------------------------16--|----------------------------------|

|----------------------------------|----------------------------------|

|----------------------------------|----------------------------------|

|----------------------------------|----------------------------------|

GUITAR1

|-------------------------|

|-------------------------|

|---6666666--4444444------|

|---6666666--4444444------|2x

|---4444444--2222222------|

|-------------------------|

GUITAR2(I CAN HEAR GUITAR 2 AT THIS PART...)

not sure of this tab..

|--------------------------------------------------------------------|

|--------------------------------------------------------------------|

|---------------------13-13----16-----13--13-13----------------------|

|--14-14-14--16-16--------------------------------16--16--16--16-----|2x

|--------------------------------------------------------------------|

|--------------------------------------------------------------------|

GUITAR1

|--------------------------------|

|--------------------------------|

|--------999999--4444444444------|

|-77777--999999--4444444444------|

|-77777--777777--2222222222------|

|-55555--------------------------|

Guitar2

|-16-16-----16-16------------------|--14-14-----14-14-----------------|

|-----17-17------17-17-16-17-16----|-------12-12-----12-12------------|

|------------------------------16--|----------------------------------|

|----------------------------------|----------------------------------|

|----------------------------------|----------------------------------|

|----------------------------------|----------------------------------|

Interlude-

Guitar2

|----------------------------------------------|

|----------------------------------------------|

|-----------------------------------131313/11--|2x

|-111111-xxxx--111111-xxxx-131313---131313/11--|

|-111111-xxxx--111111-xxxx-131313---111111/9---|

|-9-9-9--xxxx--9-9-9--xxxx-111111--------------|

then...

Guitar1

|---------------------------------- -----------|

|---------------------------------------------|

|---------------------------------------------|

|-7-7-7-xxxx-7-7-7-xxxx-9-9-9--xxxx-111111-9--|2x

|-7-7-7-xxxx-7-7-7-xxxx-9-9-9--xxxx-111111-9--|

|-5-5-5-xxxx-5-5-5-xxxx-7-7-7--xxxx-9-9-9--7--|

Guitar2

|-----------------------------------------------------|

|-----------------------------------------------------|

|--------11/13---------13/16--------16/18--131313/11--|2x

|-111111-x/-x---111111-x-/x--131313-x-/x---x-x-x-/x---|

|-111111-9/-11--111111-11/14-131313-14/16--111111/9---|

|-9-9-9--------9-9-9--------111111--------------------|

repeat verse

Pre-chorus

Repeat Chorus

Verse-

Continued...

Guitar1

|---------------------------------------------|

|---------------------------------------------|

|---------------------------------------------|

|-7-7-7-xxxx-7-7-7-xxxx-9-9-9--xxxx-111111-9--|

|-7-7-7-xxxx-7-7-7-xxxx-9-9-9--xxxx-111111-9--|

|-5-5-5-xxxx-5-5-5-xxxx-7-7-7--xxxx-9-9-9--7--|

Guitar2

|-----------------------------------------------------|

|-----------------------------------------------------|

|--------11/13---------13/16--------16/18--131313/11--|

|-111111-x/-x---111111-x-/x--131313-x-/x---x-x-x-/x---|

|-111111-9/-11--111111-11/14-131313-14/16--111111/9---|

|-9-9-9--------9-9-9--------111111--------------------|

Chorus-

Drum beats then

|---PM---|

|-----------------------------|

|-----------------------------|

|-----------------------------|

|--9-9-9-9-9-99999------------|

|--9-9-9-9-9-99999------------|

|--7-7-7-7-7-77777------------|

Repeat chorus then

G1

|----------------------|

|----------------------|

|-------------------9~-|

|-777-xxxx-777-xxxx-9~-|

|-777-xxxx-777-xxxx-7~-|

|-555-xxxx-555-xxxx----|

G2

|-------------------------12~-|

|-------------------------12~-|

|-------------------------13~-|

|-111111-xxxx-111111-xxxx-14~-|

|-111111-xxxx-111111-xxxx-14~-|

|-9-9-9--xxxx-9-9-9--xxxx-12~-|

|--------------------------------------------------------------------------|

Hallelujah

|--------------------------------------------------------------------------|

Gtr 1 - { e b g d A D )

Gtr 2 - { e b g d A D )

Intro-

1.

|---------------111111-141414141414-1414141414---|

|--121212-141414--------------------1111111111---|

|------------------------------------------------|4x

|------------------------------------------------|

|------------------------------------------------|

|------------------------------------------------|

2.

Gtr1

|------------------------------------------------|

|------------------------------------------------|

|------------------------------------------------|

|--99999999999999999---6666666--22222222---------|

|--99999999999999999---6666666--22222222---------|

|--99999999999999999---6666666--22222222---------|

Grt2

|---------------111111-141414141414-1414141414---|

|--121212-141414--------------------1111111111---|

|------------------------------------------------|4x

|------------------------------------------------|

|------------------------------------------------|

|------------------------------------------------|

Verse1-

|------------------------|------------------------|

|------------------------|------------------------|

|------------------------|------------------------|

|-99--9~--66--6~--22--2~-|-99--9~--66--6~--22--2~-|4x

|-99--9~--66--6~--22--2~-|-99--9~--66--6~--22--2~-|

|-99--9~--66--6~--22--2~-|-99--9~--66--6~--22--2~-|

|------------------------|------------------------|

|------------------------|------------------------|

|-44--4~-----------------|-44--4~-----------------|

|-xx--x---66--6~--88--8~-|-xx--x---66--6~--88--8~-|4x

|-22--2~--xx--x---xx--x~-|-22--2~--xx--x---xx--x~-|

|---------66--6~--88--8~-|---------66--6~--88--8~-|

Verse2-

Gtr1

|------------------------|------------------------|

|------------------------|------------------------|

|------------------------|------------------------|

|-99--9~--66--6~--22--2~-|-99--9~--66--6~--22--2~-|4x

|-99--9~--66--6~--22--2~-|-99--9~--66--6~--22--2~-|

|-99--9~--66--6~--22--2~-|-99--9~--66--6~--22--2~-|

Gtr2

|------------------77-66-|------------------------|

|-------44-55-77---------|-------44-55-44--44-----|

|-444-66-----------------|-444-66--------66-------|

|------------------------|------------------------|8x

|------------------------|------------------------|

|------------------------|------------------------|

pre-

Gtr1

|------------------------------------------------|

|------------------------------------------------|

|------------------------------------------------|

|--9~--------------------------------------------|

|--9~--------------------------------------------|

|--9~--------------------------------------------|

Grt2

|---------------111111-141414141414-1414141414------14-----14-----14~|

|--121212-141414--------------------1111111111-11h12--11h12--11h12---|

|--------------------------------------------------------------------|

|--------------------------------------------------------------------|

|--------------------------------------------------------------------|

|--------------------------------------------------------------------|

Chorus-

Gtr1

|------------------------------------------------|

|------------------------------------------------|

|------------------------------------------------|

|--99999999999999999---6666666--22222222---------|2x

|--99999999999999999---6666666--22222222---------|

|--99999999999999999---6666666--22222222---------|

Grt2

|---------------111111-141414141414-1414141414---|

|--121212-141414--------------------1111111111---|

|------------------------------------------------|4x

|------------------------------------------------|

|------------------------------------------------|

|------------------------------------------------|

2.

|------------------------------------------------|

|------------------------------------------------|

|------------------------------------------------|

|--999-999-999-999---6-6666--2~-222222-----------|2x

|--999-999-999-999---6-6666--2~-222222-----------|

|--999-999-999-999---6-6666--2~-222222-----------|

|----------11~-----9~-----11~-----9~-------------|

|------------------------------------------------|

|------8/9-----8/9----8/9-----8/9----------------|

|------------------------------------------------|2x

|------------------------------------------------|

|------------------------------------------------|

Do verse

do pre Gtr2 w/pick slide at end

do chorus

|------------------|------------------------------|

|------------------|------------------------------|

|-----------4-4444-|------------------------------|

|-111-222-4-4-4444-|-111-222-4-4-4444-------------|

|-111-222-4-2-2222-|-111-222-4-4-4444-------------|

|-111-222-4--------|-111-222-4-4-4444-------------|

** *** * **** *** *** * ****

Bridge-trevorshintaku's

|--7-7-7-9999-777-7-7-7-777-66/--------|

|--------------------------------------|

|--------------------------------------|

|--------------------------------------|

|--------------------------------------|

|--------------------------------------|

|--777-666-11-11-11-11-11-11-11-11-777-666------------------------|

|------------------------------------------7-7-7-7-7-7-7-7--------|

|-----------------------------------------------------------------|

|-----------------------------------------------------------------|

|-----------------------------------------------------------------|

|-----------------------------------------------------------------|

g1

|-----------------------------------------|

|-----------------------------------------|

|-----------------------------------------|

|-99999999999999--77777777777777----------|

|-99999999999999--77777777777777----------|

|-99999999999999--77777777777777----------|

g2

|--------------------7-9-11-12-11/--------|

|--/7-7-7-7-------------------------------|

|-----------9999-888----------------------|

|-----------------------------------------|

|-----------------------------------------|

|-----------------------------------------|

repeat chorus

|--------------------------------------------------------------------------|

Misery Business -not-human00's

|--------------------------------------------------------------------------|

Guitar1- {eb bb gb db Ab Db}

Guitar2- {eb bb gb db Ab Db}

Guitar 1:

Intro:

eb|----------------|----------------|----------------|----------------|

Bb|----------------|----------------|----------------|----------------|

Gb|--------4h6-4h6-|----------------|--------4h6-4h6-|----------------|

Db|7-7---7---------|6-6---6-6-6---6-|7-7---7---------|4-4---4-4-4-----|

Ab|----------------|----------------|----------------|----------------|

Db|----------------|----------------|----------------|----------------|

eb|----------------|----------------|----------------|----------------|

Bb|----------------|----------------|----------------|--------2h5-5~--|

Gb|--------4h6-4h6-|----------------|--------4h6-4h6-|----2h4---------|

Db|7-7---7---------|6-6---6-6-6---6-|7-7---7---------|2h4-------------|

Ab|----------------|----------------|----------------|----------------|

Db|----------------|----------------|----------------|----------------|

Verse:

eb|----------------|----------------|----------------|----------------|

Bb|7-----777-10x10-|7-----777-10x10-|7-----777-10x10-|7-----777--55---|

Gb|----------------|----------------|----------------|----------------|

Db|----------------|----------------|----------------|----------------|

Ab|----------------|----------------|----------------|----------------|

Db|----------------|----------------|----------------|----------------|

. ... . . . ... . ... . . . ... ..

eb|----------------|----------------|----------------|-------------9/-|

Bb|7-----777-10x10-|7-----777-10x10-|7-----777-10x10-|101010101212----|

Gb|----------------|----------------|----------------|----------------|

Db|----------------|----------------|----------------|----------------|

Ab|----------------|----------------|----------------|----------------|

Db|----------------|----------------|----------------|----------------|

. ... . . . ... . ... . .

Chorus:

eb|--------------5-|------------7---|----------------|----------------|

Bb|7-7-7-7-7-7-7---|5-5-5-5-5-5-----|7-7-7-7-7-7-7-7-|101010109-9-9-9-|

Gb|----------------|----------------|----------------|----------------|

Db|----------------|----------------|----------------|----------------|

Ab|----------------|----------------|----------------|----------------|

Db|----------------|----------------|----------------|----------------|

. . . . . . . . . . . . . . . . . . . . . . . . . . . . . .

eb|----------------|----------------|----------------|----------------|

Bb|7-7-7-7-7-7-7-7-|1010-7-7-9-9-6-6|7-7-7-7-7-7-7-7-|101010109-9-9-9-|

Gb|----------------|----------------|----------------|----------------|

Db|----------------|----------------|----------------|----------------|

Ab|----------------|----------------|----------------|----------------|

Db|----------------|----------------|----------------|----------------|

. . . . . . . . . . . . . . . . . . . . . . . . . . . . . . . .

Eb|----------------|----------------|----------------|----------------|

Bb|7---7---7---7---|7---7---7---7-10|9---9---9---9---|9---9---9/10----|

Gb|x---x---x---x---|x---x---x---x-x-|x---x---x---x---|x---x---x-x-----|

Db|4---4---4---4---|4---4---4---4-7-|6---6---6---6---|6---6---6/7-----|

Ab|----------------|----------------|----------------|----------------|

Db|----------------|----------------|----------------|----------------|

eb|----------------|----------------|----------------|9-------7-------|

Bb|7---7---7---7---|7---7---7---7-10|9---9---9---9---|10------9-------|

Gb|x---x---x---x---|x---x---x---x-x-|x---x---x---x---|----------------|

Db|4---4---4---4---|4---4---4---4-7-|6---6---6---6---|----------------|

Ab|----------------|----------------|----------------|----------------|

Db|----------------|----------------|----------------|----------------|

Pre-Verse:

eb|----------------|----------------|----------------|----------------|

Bb|----------------|----------------|----------------|----------------|

Gb|--------4h6-4h6-|----------------|--------4h6-4h6-|----------------|

Db|7-7---7---------|6-6---6-6-6---6-|7-7---7---------|4--4--4-4-------|

Ab|----------------|----------------|----------------|----------------|

Db|----------------|----------------|----------------|----------------|

Order After Pre-Verse:

Verse,

Chorus,

Bridge:

eb|----------------|----------------|----------------|----------------|\\

Bb|------5---------|------5---------|------5---------|----------------| |

Gb|------------6---|------------4---|------------4---|----------------| |-x4

Db|----------------|----------------|----------------|----------------| |

Ab|----------------|----------------|----------------|----------------| |

Db|----------------|----------------|----------------|----------------|/

Solo:

eb|----------------|----------------|----------------|101010109-9-9-9-|

Bb|5h7-7-7-7-7-7-7-|5h7-7-7-7-7-7-7-|5h7-7-7-7-7-7-7-|----------------|

Gb|----------------|----------------|----------------|----------------|

Db|----------------|----------------|----------------|----------------|

Ab|----------------|----------------|----------------|----------------|

Db|----------------|----------------|----------------|----------------|

eb|----------------|----------------|----------------|101010109-9-9-9-|

Bb|5h7-7-7-7-7-7-7-|5h7-7-7-7-7-7-7-|5h7-7-7-7-7-7-7-|----------------|

Gb|----------------|----------------|----------------|----------------|

Db|----------------|----------------|----------------|----------------|

Ab|----------------|----------------|----------------|----------------|

Db|----------------|----------------|----------------|----------------|

eb|1212121212121212|1010101010101010|9-9-9-9-9-9-9-9-|7-7-7-7-7-7-7-7-|

Bb|----------------|----------------|----------------|----------------|

Gb|----------------|----------------|----------------|----------------|

Db|----------------|----------------|----------------|----------------|

Ab|----------------|----------------|----------------|----------------|

Db|----------------|----------------|----------------|----------------|

eb|1212121212121212|1414141414141414|1717171719192121|1616161616b(17)/|

Bb|----------------|----------------|----------------|----------------|

Gb|----------------|----------------|----------------|----------------|

Db|----------------|----------------|----------------|----------------|

Ab|----------------|----------------|----------------|----------------|

Db|----------------|----------------|----------------|----------------|

eb|----------------|----------------|----------------|----------------|

Bb|----------------|----------------|----------------|----------------|

Gb|----------------|----------------|----------------|----------------|

Db|----------------|----------------|----------------|----------------|

Ab|----------------|----------------|----------------|----------------|

Db|----------------|----------------|----------------|----------------|

eb|----------------|----------------|----------------|----------------|

Bb|----------------|----------------|----------------|----------------|

Gb|----------------|----------------|----------------|----------------|

Db|----------------|----------------|----------------|----------------|

Ab|----------------|----------------|----------------|----------------|

Db|----------------|----------------|----------------|----------------|

Then Chorus again,

Outro:

eb|----------------|----------------|----------------|----------------|

Bb|----------------|----------------|----------------|----------------|

Gb|--------4h6-4h6-|----------------|--------4h6-4h6-|----------------|

Db|7-7---7---------|6-6---6-6-6---6-|7-7---7---------|4-4---4-4-4-----|

Ab|----------------|----------------|----------------|----------------|

Db|----------------|----------------|----------------|----------------|

eb|----------------|----------------|----------------|----------------|

Bb|----------------|----------------|----------------|----------------|

Gb|--------4h6-4h6-|----------------|--------4h6-4h6-|----------------|

Db|7-7---7---------|6-6---6-6-6---6-|7-7---7---------|4--4--4-4-------|

Ab|----------------|----------------|----------------|----------------|

Db|----------------|----------------|----------------|----------------|

Guitar 2:

Intro:

eb|----------------|----------------|----------------|----------------|

Bb|----------------|----------------|----------------|----------------|

Gb|----------------|----------------|----------------|----------------|

Db|4-4---4---------|2-2---2-2-2---2-|4-4---4---------|0-0---0-0-0-----|

Ab|4-4---4-2h4-2h4-|2-2---2-2-2---2-|4-4---4-2h4-2h4-|0-0---0-0-0-----|

Db|4-4---4---------|2-2---2-2-2---2-|4-4---4---------|0-0---0-0-0-----|

eb|----------------|----------------|----------------|----------------|

Bb|----------------|----------------|----------------|----------------|

Gb|----------------|----------------|----------------|----------------|

Db|4-4---4---------|2-2---2-2-2---2-|4-4---4---------|7-7-7-7-6-6-6-6-|

Ab|4-4---4-2h4-2h4-|2-2---2-2-2---2-|4-4---4-2h4-2h4-|7-7-7-7-6-6-6-6-|

Db|4-4---4---------|2-2---2-2-2---2-|4-4---4---------|7-7-7-7-6-6-6-6-|

Verse:

eb|----------------|----------------|----------------|----------------|

Bb|----------------|----------------|----------------|----------------|

Gb|----------------|----------------|----------------|----------------|

Db|4-4---4---------|2-2---2-2-2---2-|4-4---4---------|0-0---0-0-0-----|

Ab|4-4---4-2h4-2h4-|2-2---2-2-2---2-|4-4---4-2h4-2h4-|0-0---0-0-0-----|

Db|4-4---4---------|2-2---2-2-2---2-|4-4---4---------|0-0---0-0-0-----|

PM . . . . . . . . . . . . . . . . . . . . . . . . .

eb|----------------|----------------|----------------|----------------|

Bb|----------------|----------------|----------------|----------------|

Gb|----------------|----------------|----------------|----------------|

Db|4-4---4---------|2-2---2-2-2---2-|4-4---4---------|7-7-7-7-6-6-6-6-|

Ab|4-4---4-2h4-2h4-|2-2---2-2-2---2-|4-4---4-2h4-2h4-|7-7-7-7-6-6-6-6-|

Db|4-4---4---------|2-2---2-2-2---2-|4-4---4---------|7-7-7-7-6-6-6-6-|

. . . . . . . . . . . . . . . . . . . . . . . . . . . .

eb|----------------|----------------|----------------|----------------|

Bb|----------------|----------------|----------------|----------------|

Gb|----------------|----------------|----------------|----------------|

Db|4-4---4---------|2-2---2-2-2---2-|4-4---4---------|0-0---0-0-0-----|

Ab|4-4---4-2h4-2h4-|2-2---2-2-2---2-|4-4---4-2h4-2h4-|0-0---0-0-0-----|

Db|4-4---4---------|2-2---2-2-2---2-|4-4---4---------|0-0---0-0-0-----|

PM . . . . . . . . . . . . . . . . . . . . . . . . .

eb|----------------|----------------|----------------|----------------|

Bb|----------------|----------------|----------------|----------------|

Gb|----------------|----------------|----------------|----------------|

Db|4-4---4---------|2-2---2-2-2---2-|4-4---4---------|7-7-7-7-6-6-6-6-|

Ab|4-4---4-2h4-2h4-|2-2---2-2-2---2-|4-4---4-2h4-2h4-|7-7-7-7-6-6-6-6-|

Db|4-4---4---------|2-2---2-2-2---2-|4-4---4---------|7-7-7-7-6-6-6-6-|

. . . . . . . . . . . . . . . . . . . . . . . . . . . .

eb|----------------|----------------|

Bb|----------------|----------------|

Gb|----------------|----------------|

Db|4-4-4-4-4-4-4-4-|2-2-2-2-2-2-2/--|

Ab|4-4-4-4-4-4-4-4-|2-2-2-2-2-2-2/--|

Db|4-4-4-4-4-4-4-4-|2-2-2-2-2-2-2/--|

Chorus:

eb|----------------|----------------|----------------|----------------|

Bb|----------------|----------------|----------------|----------------|

Gb|----------------|----------------|----------------|----------------|

Db|0-0-0-0-0-0-0-0-|7-7-7-7-7-7-7-7-|2-2-2-2-2-2-2-2-|7-7-7-7-6-6-6-6-|

Ab|0-0-0-0-0-0-0-0-|7-7-7-7-7-7-7-7-|2-2-2-2-2-2-2-2-|7-7-7-7-6-6-6-6-|

Db|0-0-0-0-0-0-0-0-|7-7-7-7-7-7-7-7-|2-2-2-2-2-2-2-2-|7-7-7-7-6-6-6-6-|

eb|----------------|----------------|----------------|----------------|

Bb|----------------|----------------|----------------|----------------|

Gb|----------------|----------------|----------------|----------------|

Db|0-0-0-0-0-0-0-0-|7-7-7-7-7-7-7-7-|2-2-2-2-2-2-2-2-|7-7-7-7-6-6-6-6-|

Ab|0-0-0-0-0-0-0-0-|7-7-7-7-7-7-7-7-|2-2-2-2-2-2-2-2-|7-7-7-7-6-6-6-6-|

Db|0-0-0-0-0-0-0-0-|7-7-7-7-7-7-7-7-|2-2-2-2-2-2-2-2-|7-7-7-7-6-6-6-6-|

eb|----------------|----------------|----------------|----------------|

Bb|----------------|----------------|----------------|----------------|

Gb|----------------|----------------|----------------|----------------|

Db|4---4---4---4---|4---4---4---4-7-|2---2---2---2---|2---2---6/7-----|

Ab|4---4---4---4---|4---4---4---4-7-|2---2---2---2---|2---2---6/7-----|

Eb|4---4---4---4---|4---4---4---4-7-|2---2---2---2---|2---2---6/7-----|

eb|----------------|----------------|----------------|----------------|

Bb|----------------|----------------|----------------|----------------|

Gb|----------------|----------------|----------------|----------------|

Db|4---4---4---4---|4---4---4---4-7-|2---2---2---2---|4~------6-------|

Ab|4---4---4---4---|4---4---4---4-7-|2---2---2---2---|4~------6-------|

Eb|4---4---4---4---|4---4---4---4-7-|2---2---2---2---|4~------6-------|

Pre-Verse:

eb|----------------|----------------|----------------|----------------|

Bb|----------------|----------------|----------------|----------------|

Gb|----------------|----------------|----------------|----------------|

Db|4-4---4---------|2-2---2-2-2---2-|4-4---4---------|4--4--4-4-------|

Ab|4-4---4-2h4-2h4-|2-2---2-2-2---2-|4-4---4-2h4-2h4-|4--4--4-4-------|

Db|4-4---4---------|2-2---2-2-2---2-|4-4---4---------|4--4--4-4-------|

Order After Pre-Verse:

Verse,

Chorus,

Bridge: Clean

eb|----------------|----------------|----------------|----------------|

Bb|----------------|----------------|----------------|----------------|

Gb|7~--------------|9---------------|4---------------|----------------|

Db|7~--------------|7---------------|2---------------|4-------6-------|

Ab|5~--------------|7---------------|2---------------|4-------6-------|

Db|0~--------------|7---------------|2---------------|4-------6-------|

Solo:

eb|----------------|----------------|----------------|----------------|

Bb|----------------|----------------|----------------|----------------|

Gb|----------------|----------------|----------------|----------------|

Db|0-0-0-0-0-0-0-0-|7-7-7-7-7-7-7-7-|2-2-2-2-2-2-2-2-|4-4-4-4-6-6-6-6-|

Ab|0-0-0-0-0-0-0-0-|7-7-7-7-7-7-7-7-|2-2-2-2-2-2-2-2-|4-4-4-4-6-6-6-6-|

Db|0-0-0-0-0-0-0-0-|7-7-7-7-7-7-7-7-|2-2-2-2-2-2-2-2-|4-4-4-4-6-6-6-6-|

eb|----------------|----------------|----------------|----------------|

Bb|----------------|----------------|----------------|----------------|

Gb|----------------|----------------|----------------|----------------|

Db|0-0-0-0-0-0-0-0-|7-7-7-7-7-7-7-7-|2-2-2-2-2-2-2-2-|4-4-4-4-6-6-6-6-|

Ab|0-0-0-0-0-0-0-0-|7-7-7-7-7-7-7-7-|2-2-2-2-2-2-2-2-|4-4-4-4-6-6-6-6-|

Db|0-0-0-0-0-0-0-0-|7-7-7-7-7-7-7-7-|2-2-2-2-2-2-2-2-|4-4-4-4-6-6-6-6-|

eb|----------------|----------------|----------------|----------------|

Bb|----------------|----------------|----------------|----------------|

Gb|7-7-7-7-7-7-7-7-|----------------|----------------|----------------|

Db|7-7-7-7-7-7-7-7-|7-7-7-7-7-7-7-7-|2-2-2-2-2-2-2-2-|2-2-2-2-2/4-4-4-|

Ab|5-5-5-5-5-5-5-5-|7-7-7-7-7-7-7-7-|2-2-2-2-2-2-2-2-|2-2-2-2-2/4-4-4-|

Db|----------------|7-7-7-7-7-7-7-7-|2-2-2-2-2-2-2-2-|2-2-2-2-2/4-4-4-|

eb|----------------|----------------|----------------|----------------|

Bb|----------------|----------------|----------------|----------------|

Gb|7-7-7-7-7-7-7-7-|----------------|----------------|----------------|

Db|7-7-7-7-7-7-7-7-|7-7-7-7-7-7-7-7-|2-2-2-2-2-2-2-2-|2-2-2-2-2/4-4-4-|

Ab|5-5-5-5-5-5-5-5-|7-7-7-7-7-7-7-7-|2-2-2-2-2-2-2-2-|2-2-2-2-2/4-4-4-|

Db|----------------|7-7-7-7-7-7-7-7-|2-2-2-2-2-2-2-2-|2-2-2-2-2/4-4-4-|

eb|----------------|----------------|----------------|----------------|

Bb|----------------|----------------|----------------|----------------|

Gb|----------------|----------------|----------------|----------------|

Db|----------------|----------------|----------------|----------------|

Ab|----------------|----------------|----------------|----------------|

Db|----------------|----------------|----------------|----------------|

eb|----------------|----------------|----------------|----------------|

Bb|----------------|----------------|----------------|----------------|

Gb|----------------|----------------|----------------|----------------|

Db|----------------|----------------|----------------|----------------|

Ab|----------------|----------------|----------------|----------------|

Db|----------------|----------------|----------------|----------------|

Then Chorus again,

Outro:

eb|----------------|----------------|----------------|----------------|

Bb|----------------|----------------|----------------|----------------|

Gb|----------------|----------------|----------------|----------------|

Db|4-4---4---------|2-2---2-2-2---2-|4-4---4---------|0-0---0-0-0-----|

Ab|4-4---4-2h4-2h4-|2-2---2-2-2---2-|4-4---4-2h4-2h4-|0-0---0-0-0-----|

Db|4-4---4---------|2-2---2-2-2---2-|4-4---4---------|0-0---0-0-0-----|

eb|----------------|----------------|----------------|----------------|

Bb|----------------|----------------|----------------|----------------|

Gb|----------------|----------------|----------------|----------------|

Db|4-4---4---------|2-2---2-2-2---2-|4-4---4---------|4--4--4-4-------|

Ab|4-4---4-2h4-2h4-|2-2---2-2-2---2-|4-4---4-2h4-2h4-|4--4--4-4-------|

Db|4-4---4---------|2-2---2-2-2---2-|4-4---4---------|4--4--4-4-------|

|--------------------------------------------------------------------------|

When It Rains Tab

|--------------------------------------------------------------------------|

TUNING - eb Bb Gb Db Ab Eb

Intro-

1.Guitar1 - C#m 2x delay

2.Guitar1 - A C#m-E A B-C#m 2X E

Guitar2

|------12---12---14---1416---|------12----12-----------------|

|-10h12--12---12----12----12-|-10h12---12----12-10-12-10--9--|

|----------------------------|-------------------------------|

|----------------------------|-------------------------------|2x

|----------------------------|-------------------------------|

|----------------------------|-------------------------------|

Verse- C#m A E 2X

And when it rains,

On this side of town it touches, everything.

Just say it again and mean it.

We don't miss a thing.

Refrain-

F#m E

You made yourself a bed at the bottom of the blackest hole (blackest hole)

F#m E

And convinced yourself that it's not the reason you don't see the sun anymore.

Chorus-

A C#m E

And oh, oh, how could you do it?

A B C#m

Oh I, I never saw it coming.

A C#m E

And oh, oh, I need the ending.

A B C#m E

So why can't you stay just long enough to explain?

Do Verse

And when it rains,

Will you always find an escape?

Just running away,

Do refrain

From all of the ones who love you, from everything.

You made yourself a bed at the bottom of the blackest hole (blackest hole)

And you'll sleep 'til May and you'll say that you don't wanna see the sun anymore.

Do Chorus-

And oh, oh, how could you do it?

Oh I, I never saw it coming.

And oh, oh, I need the ending.

So why can't you stay just long enough to explain?

Take your time.

Take my time.

Bridge-

F#m E A

Take these chances to turn it around. (take your time)

F#m E A

Take these chances, we'll make it somehow

F#m E A

And take these chances to turn it around. (take my...)

Just turn it around.

Bridge end-

|-9----|

|--9-10|

|------|

|------|

|------|

|------|

Do chorus 1x

Oh, how could you do it?

Oh I, I never saw it coming.

Do chorus 3x

Oh, oh, how could you do it?

Oh I, I never saw it coming.

Oh, oh, how could you do it?

Oh I, I never saw it coming.

Oh, oh I need an ending.

So why can't you stay just long enough to explain?

F#m E

You can take your time,

A

Take my time.

GUITAR2 END

|-121212121212-16161616161616-|------------|

|-----------------------------|------------|

|-----------------------------|-2-2-2------|

|-----------------------------|-2-2-2------|

|-----------------------------|-0-0-0------|

|-----------------------------|------------|

|--------------------------------------------------------------------------|

Let The Flames Begin

|--------------------------------------------------------------------------|

Tuning- eb bb gb db Ab Db

Intro-

Guitar1

|------------------------------------------------------------------------|

|------------------------------------------------------------------------|

|----0----0----0----0---0---0---0---0----0----0----0----0----0----0----0-|

|-12---12---12---12---9---9---9---9---10---10---10---10---10---10---10---|4x

|------------------------------------------------------------------------|

|------------------------------------------------------------------------|

Guitar2 at 3rd time

|------6-6----------------|------6-6-------------------------|

|------------6------------|------------6------8--------------|

|---7------------7--5-----|---7------------7-----------------|

|-8-----------------------|-8--------------------------------|

|-------------------------|----------------------------------|

|-------------------------|----------------------------------|

Verse-

Guitar1

|------------------------------------------------------------------------|

|------------------------------------------------------------------------|

|----0----0----0----0---0---0---0---0----0----0----0----0----0----0----0-|

|-12---12---12---12---9---9---9---9---10---10---10---10---10---10---10---|4x

|------------------------------------------------------------------------|

|------------------------------------------------------------------------|

Guitar2 at 3rd time

|------6-6----------------|------6-6-------------------------|

|------------6------------|------------6------8--------------|

|---7------------7--5-----|---7------------7-----------------|

|-8-----------------------|-8--------------------------------|

|-------------------------|----------------------------------|

|-------------------------|----------------------------------|

Refrain-

Guitar1

|-------------------------------------------------------|

|-------------------------------------------------------|

|----10~----------------10~-----------------------------|

|--10~-----------------10~------------------------------|

|-8~------------------8~--------------------------------|

|-------------------------------------------------------|

Guitar2

|-------------------------------------------------------|

|--555-333--222-0000--555--333--------------------------|

|------------------------------2222-44444---------------|

|-------------------------------------------------------|

|-------------------------------------------------------|

|-------------------------------------------------------|

Chorus-

Guitar1

|-------------------------------------------------------|

|-------------------------------------------------------|

|-----------33333333------------55-5--5--5--------------|

|-555555555-33333333-111111111--55-5--5--5--------------|

|-555555555-11111111-111111111--33-3--3--3--------------|

|-555555555----------111111111--------------------------|

Guitar2

|-------------------------------------------------------|

|-------------------------------------------------------|

|-15151515-14/15---15151515-14/15-15-15-15-15-15--------|

|-x-x-x-x--x--x----x-x-x-x--x--x--x--x--x--x--x---------|

|-13131313-12/13---13131313-12/13-13-13-13-13-13--------|

|-------------------------------------------------------|

RepeaT VERSE 1x, Refrain , Chorus2x

Interlude

Guitar2 2x

|-10----------------------------| -----------|

|-------------------------------| -----------|

|---12-10h12--10----------------| -----------|

|----------------8--8p7h8-------|3x-7-8-s-10--|

|-------------------------10-10-| -----------|

|-------------------------------| -----------|

Repeat Chorus 2x

Outro-

Guitar2 2x

|-10----------------------------| -----------|

|-------------------------------| -----------|

|---12-10h12--10----------------| -----------|

|----------------8--8p7h8-------|3x-7-8-s-10--|

|-------------------------10-10-| -----------|

|-------------------------------| -----------|

|--------------------------------------------------------------------------|

Miracle

|--------------------------------------------------------------------------|

Guitar1(e b g d A E)

Guitar2(e b g d A E)

Guitar3 - keyboard?

INTRO-

Guitar1

|-------------------------------------------------| |----------|

|-------------------------------------------------| |----------|

|--6666666--------666666-444444-------------------| |----------|

|--6666666-777777-666666-444444-777777--2-2-4-4---|2x|----7~----|

|--4444444-777777-444444-222222-777777--2-2-4-4---| |----7~----|

|----------555555---------------555555--0-0-2-2---| |----5~----|

Guitar2

|----------------------|-----------|----------|-44--------|-77-44--------|

|------------------777-|-----------|----------|-----------|--------4h5p4-|

|-------999------------|-------999-|-99998888-|---44-6666-|------4-------|

|-666-77----666-77-----|-666-77----|----------|-----------|--------------|2x

|----------------------|-----------|----------|-----------|--------------|

|----------------------|-----------|----------|-----------|--------------|

|---------|

|---------|

|----6~---|

|----6~---|

|----4~---|

|---------|

Verse-

Guitar1 P.M.

|---------------------|-----------------------------|

|---------------------|-----------------------------|

|---------------------|-----------------------------|

|---------------------|-----------------------------|4x

|--7777777-9999-6666--|---7777777--9999999----------|

|--5555555-7777-4444--|---5555555--7777777----------|

Guitar2

|---x---x-----x---x---|---x---x-----x---x---|

|---9---9-----7---7---|---9---9-----7---7---|

|---9---9-----8---8---|---9---9-----8---8---|4x

|---11--11----9---9---|---11--11----9---9---|

|---x---x-----x---x---|---x---x-----x---x---|

|---x---x-----x---x---|---x---x-----x---x---|

Guitar3(Not sure)at the 3rd time-

|-------------------------------------------------|

|-------------------12----------------------------|

|--9p8h9p8---9p8h9------9p8h9p8--9p8h9p11---------|

|-------------------------------------------------|2x

|-------------------------------------------------|

|-------------------------------------------------|

Pre Chorus-

G1 & G2

|---------------------|

|---------------------|

|---------------------|hold

|--2---2----6---6-----|

|--2---2----6---6-----|

|--0---0----2---2-----|

Chorus

Guitar1

|-------------------------------------------------| |----------|

|-------------------------------------------------| |----------|

|--6666666--------666666-444444-------------------| |----------|

|--6666666-777777-666666-444444-777777--2-2-4-4---|2x|----7~----|

|--4444444-777777-444444-222222-777777--2-2-4-4---| |----7~----|

|----------555555---------------555555--0-0-2-2---| |----5~----|

Guitar2

|----------------------|-----------|----------|-44--------|-77-44--------|

|------------------777-|-----------|----------|-----------|--------4h5p4-|

|-------999------------|-------999-|-99998888-|---44-6666-|------4-------|

|-666-77----666-77-----|-666-77----|----------|-----------|--------------|2x

|----------------------|-----------|----------|-----------|--------------|

|----------------------|-----------|----------|-----------|--------------|

|---------|

|---------|

|----6~---|

|----6~---|

|----4~---|

|---------|

Repeat verse-

Pre Chorus-

G1 & G2

|---------------------|

|---------------------|

|---------------------|

|--2-2--6-6--7-7--9-9-|

|--2-2--6-6--7-7--9-9-|

|--0-0--2-2--5-5--7-7-|

Guitar1

|-------------------------------------------------| |-----|---|

|-------------------------------------------------| |-----|---|

|--6666666--------666666-444444-------------------| |-----|---|

|--6666666-777777-666666-444444-777777--2-2-4-4---|2x|--7~-|---|

|--4444444-777777-444444-222222-777777--2-2-4-4---| |--7~-|---|

|----------555555---------------555555--0-0-2-2---| |--5~-|---|

Guitar2

|----------------------|-----------|----------|-44--------|-77-44--------|

|------------------777-|-----------|----------|-----------|--------4h5p4-|

|-------999------------|-------999-|-99998888-|---44-6666-|------4-------|

|-666-77----666-77-----|-666-77----|----------|-----------|--------------|2x

|----------------------|-----------|----------|-----------|--------------|

|----------------------|-----------|----------|-----------|--------------|

|---------|

|---------|

|----6~---|

|----6~---|

|----4~---|

|---------|

Bridge-

1.

Guitar1

|------------------------|-----------------------|

|------------------------|-----------------------|

|-6666666666666666666666-|----------444444-------|

|-6666666666666666666666-|---22222--444444-------|

|-4444444444444444444444-|---22222--222222-------|

|------------------------|---00000---------------|

Guitar2

|------------------------|---------------------|

|------------------------|---------------------|

|-1313131313131313131313-|---99999-------------|

|-xxxxxxxxxxxxxxxxxxxxxx-|---99999--999999-----|

|-1111111111111111111111-|---77777--999999-----|

|------------------------|----------777777-----|

2.

Guitar1

|-----------|-----------|-----------|------------|-----------------------|

|-----------|-----------|-----------|------------|-----------------------|

|-6-6-6-6-6-|-6-6-6-6-6-|-6-6-6-6-6-|-6-6-6-6-6--|----------444444-------|

|-6-6-6-6-6-|-6-6-6-6-6-|-6-6-6-6-6-|-6-6-6-6-6--|---22222--444444-------|

|-4-4-4-4-4-|-4-4-4-4-4-|-4-4-4-4-4-|-4-4-4-4-4--|---22222--222222-------|

|-----------|-----------|-----------|------------|---00000---------------|

Guitar2

|----------------|-----------------| |---------------------|

|----------------|-----------------| |---------------------|

|-13-13-13-13-13-|-13-13-13-13-13--| |---99999-------------|

|-xx-xx-xx-xx-xx-|-xx-xx-xx-xx-xx--|2x|---99999--999999-----|

|-11-11-11-11-11-|-11-11-11-11-11--| |---77777--999999-----|

|----------------|-----------------| |----------777777-----|

3.

Guitar1

|-----------|-----------|-----------|------------|-----------------------|

|-----------|-----------|-----------|------------|-----------------------|

|-6-6-6-6-6-|-6-6-6-6-6-|-6-6-6-6-6-|-6-6-6-6-6--|----------444444-------|

|-6-6-6-6-6-|-6-6-6-6-6-|-6-6-6-6-6-|-6-6-6-6-6--|---22222--444444-------|

|-4-4-4-4-4-|-4-4-4-4-4-|-4-4-4-4-4-|-4-4-4-4-4--|---22222--222222-------|

|-----------|-----------|-----------|------------|---00000---------------|

Guitar2

|----------------|--------------------| |---------------------|

|----------------|--------------------| |---------------------|

|-13-13-13-13-13-|-13-13-13-13-13-----| |---99999-------------|

|-xx-xx-xx-xx-xx-|-xx-xx-xx-xx-xx-----|2x|---99999--999999-----|

|-11-11-11-11-11-|-11-11-11-11-11--7*-| |---77777--999999-----|

|----------------|--------------------| |----------777777-----|

Do verse-

Guitar1

|-------------------------------------------------| |---|---|

|-------------------------------------------------| |---|---|

|--6666666--------666666-444444-------------------| |---|---|

|--6666666-777777-666666-444444-777777--2-2-4-4---|2x|---|---|

|--4444444-777777-444444-222222-777777--2-2-4-4---| |---|---|

|----------555555---------------555555--0-0-2-2---| |---|---|

Guitar2

Guitar2

|----------------------|-----------|----------|-44--------|-77-44--------|

|------------------777-|-----------|----------|-----------|--------4h5p4-|

|-------999------------|-------999-|-99998888-|---44-6666-|------4-------|

|-666-77----666-77-----|-666-77----|----------|-----------|--------------|2x

|----------------------|-----------|----------|-----------|--------------|

|----------------------|-----------|----------|-----------|--------------|

Outro-

|------------------|---------------|

|------------------|---------------|

|------------------|--66666666666--|

|--7777777777777---|--66666666666--|2x

|--7777777777777---|--44444444444--|

|--5555555555555---|---------------|

|-----------|

|-----------|

|-----------|

|---7~------|end

|---7~------|

|---5~------|

|--------------------------------------------------------------------------|

Crushcrushcrush

|--------------------------------------------------------------------------|

GUITAR1-drop d

GUITAR2-STANDARD

INTRO-

|-----------------|

|-----------------|

|---6----6----6---|

|---6----6----6---|

|---4----4----4---|

|-----------------|

VERSE-

Guitar1-(PALM MUTED)

|-------------------------------------------|

|-------------------------------------------|

|-------------------------------------------|

|--66666666-99999999-44444444-66666666------|

|--44444444-77777777-22222222-44444444------|

|-------------------------------------------|

|-------------------------------------------|

|-------------------------------------------|

|-------------------------------------------|

|--66666666-99999999-444444444444-----------|

|--44444444-77777777-222222222222-----------|

|-------------------------------------------|

Guitar2

|-------------------------------------------|

|-------------------------------------------|

|-66-88--66--88--66--88--66--88-66--88------|

|-------------------------------------------|

|-------------------------------------------|

|-------------------------------------------|

Ref.1

|-------------------------|------------------------------|

|-------------------------|------------------------------|

|-------------------------|------------------------------|

|-----7~-----9~-----11~---|--7~-----9~-----11~-----------|

|-----7~-----9~-----11~---|--7~-----9~-----11~-----------|

|-----7~-----9~-----11~---|--7~-----9~-----11~-----------|

Guitar2

|-------------------------|------------------------------|

|-------------------------|------------------------------|

|-----6~-----8~-----9~----|--6~-----8~-----9~------------|

|-----7~-----9~-----11~---|--7~-----9~-----11~-----------|

|-----7~-----9~-----11~---|--7~-----9~-----11~-----------|

|-----5~-----7~-----9~----|--5~-----7~-----9~------------|

interlude1

G1

|-------------------------------------------|

|-------------------------------------------|

|-------------------------------------------|

|----77---777----766-66---------------------|

|----77---777----766-66-----(BREAK)---------|

|----77---777----766-66---------------------|

G2

|----11-12-11--------12--11-----------------|

|------------12-----------------------------|

|---------------11--------------------------|

|-------------------------------------------|

|-------------------------------------------|

|-------------------------------------------|

REFRAIN2

crush...............crush...

|-------------------------------------------|

|-------------------------------------------|

|------6~-----------------6~----------------|

|------6~-----------------6~----------------|

|------4~-----------------4~----------------|

|-------------------------------------------|

Chorus

|--------------------|-----------------------|

|--------------------|-----------------------|

|--66-----------4~---|--------66----4~-------|

|--66----22-----4~---|--77----66----4~-------|

|--44----22-----2~---|--77----44----2~-------|

|--------22----------|--77-------------------|

|--------------------|---------------------------|

|--------------------|---------------------------|

|--66-----------4~---|---------------------------|

|--66----22-----4~---|--77777777-99999-----------|

|--44----22-----2~---|--77777777-99999-(break)---|

|--------22----------|--77777777-99999-----------|

interlude2

G1

|-------------------------------------------|

|-------------------------------------------|

|-------------------------------------------|

|----11-11-11-9-9-9-9-9-11-11-11-9-9-9------|

|----11-11-11-9-9-9-9-9-11-11-11-9-9-9------|

|----11-11-11-9-9-9-9-9-11-11-11-9-9-9------|

G2

|--------------------------------

Get this song at:  amazon.com sheetmusicplus.com

Share your thoughts

0 Comments found