Paramore

Paramore - Pressure guitar tab

.:. Pressure by PARAMORE, All We Know is Falling (2006) .:.

==============================================================

I was browsing for paramore tabs and noticed that some parts,

like the lead during the chorus & bridge, of the proposed

tabs here were incorrect, or at least not quite accurate.

I tried tabin' it out and here it is, Enjoy ;)

==============================================================

Jason : Lead Guitarist / Tuning - DADGBe

[CHORUS]x4 (0:36 , 1:23 , 2:31)

e|------------17---------------|

B|------15-------15----15------|

G|---16----16-------16---------|

D|-----------------------------|

A|-----------------------------|

D|-----------------------------|

e|------------17---------------|

B|------15-------15----15------|

G|---14----14-------16---------|

D|-----------------------------|

A|-----------------------------|

D|-----------------------------|

e|------------17----------------14h15p14-|---17~---|

B|------15-------15-------15-------------|---------|

G|---------------------------------------|---------|

D|---16----16-------16/17----17----------|---------|

A|---------------------------------------|---------|

D|---------------------------------------|---------|

*End on this 2nd time*

& During the [BRIDGE]x5 (2:04)

e|------------11--------------|

B|------10--------10-----10---|

G|----------7--------7--------| x 2 Added by tabs-database.com and our distinguished partners

Get this song at:  amazon.com sheetmusicplus.com

Share your thoughts

0 Comments found