Paramore

Paramore - Pressure Bass guitar tab

This is my first one but I think its right.

intro

G|--------------------------------------------------------------|

D|--------------------------------------------------------------|

A|-2-2-2222-----------------------------------------------------|

D|-----------0-0-0000--5-5-5555---0-0-0000----------------------|

verse

G|----------------------------------------------------------------|

D|--------------------------------------------------------------4-|

A|-22-2------------------------22-2-----------------------2--4----|

D|--------55-5----00-0---44-4---------55-5---00-0---44------------|

pre-chorus

G|--------------------------------------|

D|--------------------------------------|

A|-2-2-2-21-----------------------------|

D|-----------5-5-554---0-0-0-003-4-4-445| x2

chorus

G|-----------------------------------------------|

D|-----------------------------------------------|

A|-------------------------------5---------------|

D|-5555555--00000-4444444--555-------------------|

G|------------------------------------------------|

D|----------------------------------3-------------|

A|-------------------------------3/5-5------------|

D|-5555555--00000-4444444--555--------------------| x2

verse

G|-----------------------------------------------|

D|-----------------------------------------------|

A|-22-2-------------------------5/12-------------|

D|--------55-5----00-0---44----------------------|

G|----------------------------------------------------------------|

D|--------------------------------------------------------------4-|

A|-22-2------------------------22-2-----------------------2--4----|

D|--------55-5----00-0---44-4---------55-5---00-0---44------------|

pre-chorus

G|--------------------------------------|

D|--------------------------------------|

A|-2-2-2-21-----------------------------|

D|-----------5-5-554---0-0-0-003-4-4-445| x2

chorus

G|-----------------------------------------------|

D|-----------------------------------------------|

A|-------------------------------5---------------|

D|-5555555--00000-4444444--555-------------------|

G|------------------------------------------------|

D|----------------------------------3-------------|

A|-------------------------------3/5-5------------|

D|-5555555--00000-4444444--555--------------------| x2

Bridge

G|--------------------------------------------------------------|

D|--------------------------------------------------------------|

A|-2-2-2222-----------------------------------------------------|

D|-----------0-0-0000--5-5-5555---0-0-0000----------------------|

pre-chorus

G|--------------------------------------|

D|--------------------------------------|

A|-2-2-2-21-----------------------------|

D|-----------5-5-554---0-0-0-003-4-4-445| x4

chorus

G|------------------------------------------------|

D|----------------------------------3-------------|

A|-------------------------------3/5-5------------|

D|-5555555--00000-4444444--555--------------------|

G|-----------------------------------------------|

D|-----------------------------------------------|

A|-------------------------------5---------------|

D|-5555555--00000-4444444--555-------------------| x2

end on

G|---|

D|---|

A|-5-|

D|---|Added by tabs-database.com and our distinguished partners

Get this song at:  amazon.com sheetmusicplus.com

Share your thoughts

0 Comments found