Paramore

Paramore - Oh Star guitar chord

Paramore

Oh Star

Submitted by: paramore_fans@yahoo.com

One of the easiest paramore song ever. Enjoy!!!

Tuning: Standard EADGBe

Chords used:

C - x32010

Am7 - x02010

FM7 - 1x3210

Am - x03210

F - 133211

G - 320003 or 320033

Verse 1:

C Am7

Oh star fall down on me

C Am7

Let me make a wish upon you

C Am7

Hold on, let me think

C Am7

Think of what I'm wishing for

Refrain:

FM7 C

Wait, don't go away.

FM7 C

Just not yet.

FM7 C

Cause I thought, I had it.

FM7 C

But I forget.

Chorus :

Am C

And I won't let you fall away,

F

From me. You will never fade.

Am C

And I won't let you fall away.

F C--Am7(x2)

From me. You will never fade away from me.

Verse 2:

C Am7

And now I let my dreams consume me,

C Am7

And tell me what to think.

C Am7

But hold on, Hold on.

C Am7

What am I dreaming?

(Repeat refrain and Chorus)

Bridge:

Guitar 1: C--Am7--C--F-G-Am-C

Guitar 2:

e|-15-15-15----------------------------19-19-19-------------------------|

B|----------17-17-17----------------------------20-20-20----------------|

G|-------------------17-17-17-16h17-17-------------------16-16-16-17-16-|

D|----------------------------------------------------------------------|

A|----------------------------------------------------------------------|

E|----------------------------------------------------------------------|

e|-19-19-19-------------------------------------------------------------|

B|----------20-20-20----------------------------------------------------|

G|-------------------16-16-16-17-16-------------------------------------|

D|----------------------------------3-3-3-3-5-5-5-5-7-7-7-7-10-10-10-10-|

A|----------------------------------3-3-3-3-5-5-5-5-7-7-7-7-10-10-10-10-|

E|----------------------------------1-1-1-1-3-3-3-3-5-5-5-5--8--8--8--8-|

Do this part on guitar 2 while doing the outro until fade out

e|-15-15-------------------------------------|

G|-------17-17-------------------------------|

D|-------------16-16-17-17-16-16-14-14-------|

A|-------------------------------------17~---|

E|-------------------------------------------|

Outro:

Am C

And I won't let you fall away.

F

You will never fade away.

Am C

And I won't let you fall away from me,

F C--Am7

You will never...

C Am7 FM7(Hold)

Oh star fall down on me.

Get this song at:  amazon.com sheetmusicplus.com

Share your thoughts

0 Comments found