Paramore

Paramore - Never Let This Go guitar tab

Song Title: Never Let This Go

Band/Artist: Paramore

Tuning: Standard

cool song. one of my favorite songs. hope this tab can help.

Intro:

Eb F# B

e----------|----4-----4-|----2---2---2---2-|

b---7---7--|------------|------------------|

g----------|--6-----6---|---4---4---4---4--|

d--8---8---|-4-----4----|------------------|

a-6---6----|------------|--2---2---2---2---|

e----------|------------|------------------|

Then:

Eb F# B B

e|------------------------------------------|

b|------------------------------------------|

g|-8888------44444444-4---------------------|

d|-8888-4444-44444444-4-let it ring---------|

a|-6666-4444-22222222-2---------------------|

e|------2222--------------------------------|

B G#m

e|----9---|---------------------------------|

b|-----12-|-----11/12---11/12---11/12-------|

g|--11----|---11------11------11------------|

d|-9------|---------------------------------| 2 times

a|--------|-11------------------------------|

e|--------|---------------------------------|

Verse 1:

B G#m

e|----9---|---------------------------------|

b|-----12-|-----11/12---11/12---11/12-------|

g|--11----|---11------11------11------------|

d|-9------|---------------------------------| 2 times

a|--------|-11------------------------------|

e|--------|---------------------------------|

Maybe if my heart stops beating

It won't hurt

e|-----------------|

b|---7-7-----------|

g|-------6-6-------|

d|-----------8-8---|

a|-6---------------|

e|-----------------|

this much

B G#m

e|----9---|---------------------------------|

b|-----12-|-----11/12---11/12---11/12-------|

g|--11----|---11------11------11------------|

d|-9------|---------------------------------| 2 times

a|--------|-11------------------------------|

e|--------|---------------------------------|

And never will I have to answer

Again to

e|-----------------|

b|---7-7-----------|

g|-------6-6-------|

d|-----------8\-1--|

a|-6---------------|

e|-----------------|

anyone

B G#m

e|----9---|---------------------------------|

b|-----12-|-----11/12---11/12---11/12-------|

g|--11----|---11------11------11------------|

d|-9------|---------------------------------| 2 times

a|--------|-11------------------------------|

e|--------|---------------------------------|

Please don't get me wrong

Because

Chorus:

F# B

e|------------------------------------------|

b|------------------------------------------|

g|------------------------------------------|

d|-444444444444444444--9999999999999999-----|

a|-444444444444444444--9999999999999999-----|

e|-222222222222222222--7777777777777777-----|

I'll never let this go

G#m - G#m Bbm Bbm B

e|------------------------------------------|

b|------------------------------------------|

g|------------------------------------------|

d|-666-666----------888-------8---9---------|

a|-666-666----------888-------8---9-let it ring-|

e|-444-444----------666-------6---7---------|

But I can't find the words to tell you

F# B

e|------------------------------------------|

b|------------------------------------------|

g|------------------------------------------|

d|-444444444444444444--9999999999999999-----|

a|-444444444444444444--9999999999999999-----|

e|-222222222222222222--7777777777777777-----|

I don't want to be alone

G#m - G#m Bbm Bbm B

e|------------------------------------------|

b|------------------------------------------|

g|------------------------------------------|

d|-666-666----------888-------8---9---------|

a|-666-666----------888-------8---9-let it ring-|

e|-444-444----------666-------6---7---------|

But now I feel like I don't know you

Verse2: (Repeat patterns of Verse1)

Repeat Chorus

Then:

Eb F# B

e----------|----4-----4-|----2---2---2---2-|

b---7---7--|------------|------------------|

g----------|--6-----6---|---4---4---4---4--|

d--8---8---|-4-----4----|------------------| 2 times

a-6---6----|------------|--2---2---2---2---|

e----------|------------|------------------|

let this go

Solo:

Eb F# B

e|---------------|-------------------------|

b|---------------|---------9-9-------------|

g|-----11--------|-----11------11-11-11----|

d|-8-9----8-9----|-8-9---------------------|

a|------------11-|-------------------------|

e|---------------|-------------------------|

Eb F# B

e|---------------|-------------------------|

b|---------------|-------------------------|

g|-----11--------|-------------------------|

d|-8-9----8-9----|----------------88888888-|

a|------------11-|-9999-11111111-----------|

e|---------------|-------------------------|

Eb F# B

e|---------------|-------------------------|

b|------------9--|---------9-9-------------|

g|-----11--------|-----11------11-11-11----|

d|-8-9----8-9----|-8-9---------------------|

a|---------------|-------------------------|

e|---------------|-------------------------|

Eb F# B

e|-----------------------------------------|

b|-------------9---------------------------|

g|-----11----------11--let it ring---------|

d|-8-9----8-9------------------------------|

a|-----------------------------------------|

e|-----------------------------------------|

Repeat Chorus

just listen to the song to get the timing & compare..

for comments, u can email me at jmac_12001@yahoo.com and band.euphonics@yahoo.com. Peace!

add nalang po sa frndster.. hehe salamat! (thanks) ^^

Get this song at:  amazon.com sheetmusicplus.com

Share your thoughts

0 Comments found