Paramore

Paramore - My Heart guitar tab

My name is Mark and I've been looking around for this tab and all of the ones I've seen

either wrong, or confusing. So I hope this tab will help out alot more. Email me at

if you have any questions. Thanks.

h - hammer on

~ - ring out

+ - harmonics

x - palm mute

guitar 1

intro/chours [distortion] (00:00)

e|-7-----------7---------------------------7--------------------------|

B|-----9---9------7---7---7h9--9---9---9-------9---9---7---7---7------|

G|---9---9---9------9---9-----9--9---9---9---9---9---9---9---9---9----|

D|--------------------------------------------------------------------|

A|--------------------------------------------------------------------|

D|--------------------------------------------------------------------|

e|-7---7---7---7---7---7--|

B|------------------------|

G|--9---9---9---9---9---9-|

D|------------------------|

A|------------------------|

D|------------------------|

e|-7-----------7------------------------------7------------------------0~--|

B|-----9---9------7---7---7h9-9---9---9---9-------9---9---7---7---7----5~--|

G|---9---9---9------9---9-------9---9---9---9---9---9---9---9---9---9—-4~--|

D|-------------------------------------------------------------------------|

A|-------------------------------------------------------------------------|

D|-------------------------------------------------------------------------|

guitar 2

intro/chours [distortion] (00:00)

e|---------------------------------------------------------------------|

B|---------------------------------------------------------------------|

G|---------------------------------------------------------------------|

D|-2------7------4-----6-----7-----------------------------------------|(x2)

A|-2(x12)-7(x12)-2(x6)-6(x6)-7(x12)------------------------------------|

D|-2------7------------6-----7-----------------------------------------|

end on

e|------|

B|------|

G|------|

D|--7~--|

A|--7~--|

E|--7~--|

guitar 1 and 2

verse [clean] (00:23)

e|-0000000000000000--| |-000000000~--|

B|-0000000000000000--| |-000000000~--|

G|-6666444422222222--|(x5)|-666644442~--|

D|-6666444422222222--| |-666644442~--|

A|-4444222200000000--| |-444422220~--|

E|-------------------| |-------------|

guitar 1

verse [clean] (00:32)

+ + + + + + + + + +

e|-12------------------|--12---------------12---|

B|----12-12-7-------5--|-----12-12-7------------|

G|---------------------|------------------------|

D|---------------------|------------------------|

A|---------------------|------------------------|

D|---------------------|------------------------|

guitar 1

intro/chours [distortion] (00:53)

e|-7-----------7---------------------------7--------------------------|

B|-----9---9------7---7---7h9--9---9---9-------9---9---7---7---7------|

G|---9---9---9------9---9-----9--9---9---9---9---9---9---9---9---9----|

D|--------------------------------------------------------------------|

A|--------------------------------------------------------------------|

D|--------------------------------------------------------------------|

e|-7---7---7---7---7---7--|

B|------------------------|

G|--9---9---9---9---9---9-|

D|------------------------|

A|------------------------|

D|------------------------|

e|-7-----------7------------------------------7------------------------0~--|

B|-----9---9------7---7---7h9-9---9---9---9-------9---9---7---7---7----5~--|

G|---9---9---9------9---9-------9---9---9---9---9---9---9---9---9---9—-4~--|

D|-------------------------------------------------------------------------|

A|-------------------------------------------------------------------------|

D|-------------------------------------------------------------------------|

guitar 2

intro/chours [distortion] (00:53)

e|---------------------------------------------------------------------|

B|---------------------------------------------------------------------|

G|---------------------------------------------------------------------|

D|-2------7------4-----6-----7-----------------------------------------|(x2)

A|-2(x12)-7(x12)-2(x6)-6(x6)-7(x12)------------------------------------|

D|-2------7------------6-----7-----------------------------------------|

end on

e|------|

B|------|

G|------|

D|--7~--|

A|--7~--|

E|--7~--|

guitar 1 and 2

verse [clean] (1:16)

e|-0000000000000000--| |-000000000~--|

B|-0000000000000000--| |-000000000~--|

G|-6666444422222222--|(x5)|-666644442~--|

D|-6666444422222222--| |-666644442~--|

A|-4444222200000000--| |-444422220~--|

E|-------------------| |-------------|

guitar 1

verse [clean] (1:26)

e|-7-----------7------------------------------7------------------------0~--|

B|-----9---9------7---7---7h9-9---9---9---9-------9---9---7---7---7----5~--|

G|---9---9---9------9---9-------9---9---9---9---9---9---9---9---9---9—-4~--|

D|-------------------------------------------------------------------------|

A|-------------------------------------------------------------------------|

D|-------------------------------------------------------------------------|

guitar 1 and 2

pre chours [distortion] (01:36)

e|---------------------------------------|

B|---------------------------------------|

G|-666644442222222266664444222222222222--|

D|-666644442222222266664444222222222222--|

A|-444422220000000044442222000000000000--|

E|-------------------------xxxxxxxxxxxx--|

guitar 1

intro/chours [distortion] (1:48)

e|-7-----------7---------------------------7--------------------------|

B|-----9---9------7---7---7h9--9---9---9-------9---9---7---7---7------|

G|---9---9---9------9---9-----9--9---9---9---9---9---9---9---9---9----|

D|--------------------------------------------------------------------|

A|--------------------------------------------------------------------|

D|--------------------------------------------------------------------|

e|-7---7---7---7---7---7--|

B|------------------------|

G|--9---9---9---9---9---9-|

D|------------------------|

A|------------------------|

D|------------------------|

e|-7-----------7------------------------------7------------------------0~--|

B|-----9---9------7---7---7h9-9---9---9---9-------9---9---7---7---7----5~--|

G|---9---9---9------9---9-------9---9---9---9---9---9---9---9---9---9—-4~--|

D|-------------------------------------------------------------------------|

A|-------------------------------------------------------------------------|

D|-------------------------------------------------------------------------|

guitar 2

intro/chours [distortion] (1:48)

e|---------------------------------------------------------------------|

B|---------------------------------------------------------------------|

G|---------------------------------------------------------------------|

D|-2------7------4-----6-----7-----------------------------------------|(x2)

A|-2(x12)-7(x12)-2(x6)-6(x6)-7(x12)------------------------------------|

D|-2------7------------6-----7-----------------------------------------|

guitar 1 and 2

interlude [light distortion] (02:08)

e|-0000000000000000000000000000--| |-000000000000000000000000000000000000|

B|-0000000000000000000000000000--| |-000000000000000000000000000000000000|

G|-6666666699999999222222222444--|x2 |-666666669999999922222222222222222222|

D|-6666666699999999222222222444--| |-666666669999999922222222222222222222|

A|-4444444477777777000000000222--| |-444444447777777700000000000000000000|

D|-------------------------------| |-------------------------xxxxxxxxxxxx|

guitar 1

interlude [clean]

e|-----7------|

B|-9-7---9-7--|

G|------------| X3 Played at diff. timing (02:13, 02:23, 02:34)

D|------------|

A|------------|

D|------------|

guitar 1 and 2

outro [distortion] (2:41)

e|-------------------------------------------------|

B|-------------------------------------------------|

G|-------------------------------------------------|

D|-6-6-66-6666-2-2-22-2222-7-7-77-7777-7-7-79-9999-|(x2)

A|-4-4-44-4444-2-2-22-2222-7-7-77-7777-7-7-79-9999-|

D|-------------2-2-22-2222-7-7-77-7777-7-7-79-9999-|

x x x x x x x x

e|----------------------------------|

B|----------------------------------|

G|----------------------------------|

D|-6------2------7------7-----9-----|(x4)

A|-4(x12)-2(x12)-7(x12)-7(x6)-9(x6)-|

D|--------2------7------7-----9-----|

guitar 1

outro [distortion]

e|-----------------------------------|

B|----------99999999-----------------|

G|-666888999--------6668889998889999-|(x3)

D|-----------------------------------|

A|-----------------------------------|

E|-----------------------------------|

elevens not ones (4:05)

e|-111111111111111111111111-----------------|

B|-------------------------6668889998889999-|

G|------------------------------------------|

D|------------------------------------------|

A|------------------------------------------|

E|------------------------------------------|

end on

e|----|

B|----|

G|----|

D|-6~-|

A|-4~-|

D|----|Added by tabs-database.com and our distinguished partners

Get this song at:  amazon.com sheetmusicplus.com

Share your thoughts

0 Comments found