Paramore

Paramore - Misery Business Acoustic guitar tab

theres two guitars if you didnt know already.

they play basically the same but im missing

some of the lead guitar but dont worry it doesnt

take away from it.

this is the first tab ive ever done so lemme know

if it gets confusing or not.

1/2 step

Intro (0:00)

e|---------------------------------------------------------|

b|---------------------------------------------------------|

g|---------------------------------------------------------|

d|---4-4--4---------2-2--2-2-2--4-4--4---------0-0--0-0-0--|

a|---4-4--4-2h4-2h4-2-2--2-2-2--4-4--4-2h4-2h4-0-0--0-0-0--|

d|---4-4--4---------2-2--2-2-2--4-4--4---------0-0--0-0-0--|

e|---------------------------------------------------------|

b|---------------------------------------------------------|

g|---------------------------------------------------------|

d|---4-4--4---------2-2--2-2-2--4-4--4---------9----9------|

a|---4-4--4-2h4-2h4-2-2--2-2-2--4-4--4-2h4-2h4-7-x4-7-x4---|

d|---4-4--4---------2-2--2-2-2--4-4--4---------7----6------|

Verse (0:12)

e|---------------------------------------------------------|

b|---------------------------------------------------------|

g|---------------------------------------------------------|

d|---4-4--4---------2-2--2-2-2--4-4--4---------0-0--0-0-0--|

a|---4-4--4-2h4-2h4-2-2--2-2-2--4-4--4-2h4-2h4-0-0--0-0-0--|

d|---4-4--4---------2-2--2-2-2--4-4--4---------0-0--0-0-0--|

pm . . . . . . . . . . . . . . . . . . . . . . . .

x2

e|---------------------------------------------------------|

b|---------------------------------------------------------|

g|---------------------------------------------------------|

d|---4-4--4---------2-2--2-2-2--4-4--4---------9----9------|

a|---4-4--4-2h4-2h4-2-2--2-2-2--4-4--4-2h4-2h4-7-x4-7-x4---|

d|---4-4--4---------2-2--2-2-2--4-4--4---------7----6------|

. . . . . . . . . . . . . . . . . . . . .

pre chorus (0:34)

e|----------------------------------|

b|----------------------------------|

g|----------------------------------|

d|---4444----22222------------------|

a|---4444-x2-22222------------------|

d|---4444----22222------------------|

....

chorus listen to song for strumming

(0:49)

E|----------------------|------------------------------------------|

B|---7------------------|------------------------------------------|

G|---6---6-------6------|------------------------------------------|

D|---4---7---4---7---6--|x2---0-0-0-0-0-0-0h444-2-2-2-2-2-2-2h444--|

A|---5---7---2---4---4--|-----0-0-0-0-0-0-0h444-2-2-2-2-2-2-2h444--|

D|-----------2---4---4--|-----0-0-0-0-0-0-0h444-2-2-2-2-2-2-2h444--|

E|----------------------------------------|

B|----------------------------------------|

G|----------------------------------------|

D|---0-0-0-0-0-0-0h444-2-2-2-2-9-9-9-9-9--|

A|---0-0-0-0-0-0-0h444-2-2-2-2-7-7-7-7-7--|

D|---0-0-0-0-0-0-0h444-2-2-2-2-7-7-7-7-6--|

e|------------------------------------------------------|

b|------------------------------------------------------|

g|------------------------------------------------------|

d|---4-4--4---------2-2--2-2-2--4-4--4---------0-0-0-0--|

a|---4-4--4-2h4-2h4-2-2--2-2-2--4-4--4-2h4-2h4-0-0-0-0--|

d|---4-4--4---------2-2--2-2-2--4-4--4---------0-0-0-0--|

(1:07)

e|---------------------------------------------------------|

b|---------------------------------------------------------|

g|---------------------------------------------------------|

d|---4-4--4---------2-2--2-2-2--4-4--4---------0-0--0-0-0--|

a|---4-4--4-2h4-2h4-2-2--2-2-2--4-4--4-2h4-2h4-0-0--0-0-0--|

d|---4-4--4---------2-2--2-2-2--4-4--4---------0-0--0-0-0--|

pm . . . . . . . . . . . . . . . . . . . . . . . .

x2

e|---------------------------------------------------------|

b|---------------------------------------------------------|

g|---------------------------------------------------------|

d|---4-4--4---------2-2--2-2-2--4-4--4---------9----9------|

a|---4-4--4-2h4-2h4-2-2--2-2-2--4-4--4-2h4-2h4-7-x4-7-x4---|

d|---4-4--4---------2-2--2-2-2--4-4--4---------7----6------|

. . . . . . . . . . . . . . . . . . . . .

e|----------------------------------|

b|----------------------------------|

g|----------------------------------|

d|---4444----22222------------------|

a|---4444-x2-22222------------------|

d|---4444----22222------------------|

....

(1:44)

E|----------------------|------------------------------------------|

B|---7------------------|------------------------------------------|

G|---6---6-------6------|------------------------------------------|

D|---4---7---4---7---6--|x2---0-0-0-0-0-0-0h444-2-2-2-2-2-2-2h444--|

A|---5---7---2---4---4--|-----0-0-0-0-0-0-0h444-2-2-2-2-2-2-2h444--|

D|-----------2---4---4--|-----0-0-0-0-0-0-0h444-2-2-2-2-2-2-2h444--|

(1:56)

E|----------------------------------------|----------------------|

B|----------------------------------------|---7------------------|

G|----------------------------------------|---6---6-------6------|

D|---0-0-0-0-0-0-0h444-2-2-2-2-9-9-9-9-9--|---4---7---4---7---6--|x??

A|---0-0-0-0-0-0-0h444-2-2-2-2-7-7-7-7-7--|---5---7---2---4---4--|

D|---0-0-0-0-0-0-0h444-2-2-2-2-7-7-7-7-6--|-----------2---4---4--|

(2:20) Guitar 2 solo

e|----------------------------------|

b|----------------------------------|

g|---9/11-11-11-11-11-11-11-11------|

d|---x--------------------------x3--|

a|---7/9--9--9--9--9--9--9--9-------|

d|----------------------------------|

E|----------------------------| x2

B|----------------------------|

G|----------------------------|

D|---12-12-12-12-11-11-11-11--|

A|----------------------------|

D|----------------------------|

E|--------------------------------------------------------------------|

B|--------------------------------------------------------------------|

G|---9-9-9-9-9-9-9-9--------------------------------------------------|

D|-------------------12-12-12-12-12-12-12-12-11-11-11-11-11-11-11-11--|

A|--------------------------------------------------------------------|

D|--------------------------------------------------------------------|

E|------------------------------------------------------------|

B|------------------------------------------------------------|

G|-------------------9-9-9-9-9-9-9-9-11-11-11-11-11-11-11-11--|

D|---9-9-9-9-9-9-9-9------------------------------------------|

A|------------------------------------------------------------|

D|------------------------------------------------------------|

E|------------------------------------|

B|---10-10-10-10-12-12-14-9-9-9-9-9\\--|

G|------------------------------------|

D|------------------------------------|

A|------------------------------------|

D|------------------------------------|

(2:44)

E|----------------------|------------------------------------------|

B|---7------------------|------------------------------------------|

G|---6---6-------6------|------------------------------------------|

D|---4---7---4---7---6--|x2---0-0-0-0-0-0-0h444-2-2-2-2-2-2-2h444--|

A|---5---7---2---4---4--|-----0-0-0-0-0-0-0h444-2-2-2-2-2-2-2h444--|

D|-----------2---4---4--|-----0-0-0-0-0-0-0h444-2-2-2-2-2-2-2h444--|

E|----------------------------------------|

B|----------------------------------------|

G|----------------------------------------|

D|---0-0-0-0-0-0-0h444-2-2-2-2-9-9-9-9-9--|

A|---0-0-0-0-0-0-0h444-2-2-2-2-7-7-7-7-7--|

D|---0-0-0-0-0-0-0h444-2-2-2-2-7-7-7-7-6--|

e|---------------------------------------------------------|

b|---------------------------------------------------------|

g|---------------------------------------------------------|

d|---4-4--4---------2-2--2-2-2--4-4--4---------0-0--0-0-0--|

a|---4-4--4-2h4-2h4-2-2--2-2-2--4-4--4-2h4-2h4-0-0--0-0-0--|

d|---4-4--4---------2-2--2-2-2--4-4--4---------0-0--0-0-0--|

e|------------------------------------------------------|

b|------------------------------------------------------|

g|------------------------------------------------------|

d|---4-4--4---------2-2--2-2-2--4-4--4---------0-0-0-0--|

a|---4-4--4-2h4-2h4-2-2--2-2-2--4-4--4-2h4-2h4-0-0-0-0--|

d|---4-4--4---------2-2--2-2-2--4-4--4---------0-0-0-0--|Added by tabs-database.com and our distinguished partners

Get this song at:  amazon.com sheetmusicplus.com

Share your thoughts

0 Comments found