Paramore

Paramore - Miracle guitar tab

By-Francis

Location - Carmelite, Lucena City

Cp #- 09283150081

E-add- f_sario@yahoo.com

School- Sacred Heart College

Guitar1(e b g d A E)

Guitar2(e b g d A E)

Guitar3 - keyboard?

INTRO-

Guitar1

|-------------------------------------------------| |----------|

|-------------------------------------------------| |----------|

|--6666666--------666666-444444-------------------| |----------|

|--6666666-777777-666666-444444-777777--2-2-4-4---|2x|----7~----|

|--4444444-777777-444444-222222-777777--2-2-4-4---| |----7~----|

|----------777777---------------777777--2-2-4-4---| |----7~----|

Guitar2

|----------------------|-----------|----------|-----------|-77-----------|

|------------------777-|-----------|----------|-99--------|----99--------|

|-------999------------|-------999-|-99998888-|------6666-|--------8h9p8-|

|-666-77----666-77-----|-666-77----|----------|---99------|------7-------|2x

|----------------------|-----------|----------|-----------|--------------|

|----------------------|-----------|----------|-----------|--------------|

|---------|

|---------|

|----6~---|

|----6~---|

|----4~---|

|---------|

Verse-

Guitar1 P.M.

|---------------------|-----------------------------|

|---------------------|-----------------------------|

|---------------------|-----------------------------|

|--7777777-9999-6666--|---7777777--2222222----------|4x

|--7777777-9999-6666--|---7777777--2222222----------|

|--7777777-9999-6666--|---7777777--2222222----------|

Guitar2

|---x---x-----x---x---|---x---x-----x---x---|

|---9---9-----7---7---|---9---9-----7---7---|

|---9---9-----8---8---|---9---9-----8---8---|4x

|---11--11----9---9---|---11--11----9---9---|

|---x---x-----x---x---|---x---x-----x---x---|

|---x---x-----x---x---|---x---x-----x---x---|

Guitar3(Not sure)at the 3rd time-

|-------------------------------------------------|

|-------------------12----------------------------|

|--9p8h9p8---9p8h9------9p8h9p8--9p8h9p11---------|

|-------------------------------------------------|2x

|-------------------------------------------------|

|-------------------------------------------------|

Pre Chorus-

G1 & G2

|---------------------|

|---------------------|

|---------------------|hold

|--2---2----6---6-----|

|--2---2----6---6-----|

|--2---2----6---6-----|

Chorus

Guitar1

|-------------------------------------------------| |----------|

|-------------------------------------------------| |----------|

|--6666666--------666666-444444-------------------| |----------|

|--6666666-777777-666666-444444-777777--2-2-4-4---|2x|----7~----|

|--4444444-777777-444444-222222-777777--2-2-4-4---| |----7~----|

|----------777777---------------777777--2-2-4-4---| |----7~----|

Guitar2

|----------------------|-----------|----------|-----------|-77-----------|

|------------------777-|-----------|----------|-99--------|----99--------|

|-------999------------|-------999-|-99998888-|------6666-|--------8h9p8-|

|-666-77----666-77-----|-666-77----|----------|---99------|------7-------|2x

|----------------------|-----------|----------|-----------|--------------|

|----------------------|-----------|----------|-----------|--------------|

|---------|

|---------|

|----6~---|

|----6~---|

|----4~---|

|---------|

Repeat verse-

Pre Chorus-

G1 & G2

|---------------------|

|---------------------|

|---------------------|

|--2-2--6-6--7-7--9-9-|

|--2-2--6-6--7-7--9-9-|

|--0-0--2-2--5-5--7-7-|

Guitar1

|-------------------------------------------------| |----------|

|-------------------------------------------------| |----------|

|--6666666--------666666-444444-------------------| |----------|

|--6666666-777777-666666-444444-777777--2-2-4-4---|2x|----7~----|

|--4444444-777777-444444-222222-777777--2-2-4-4---| |----7~----|

|----------777777---------------777777--2-2-4-4---| |----7~----|

Guitar2

|----------------------|-----------|----------|-----------|-77-----------|

|------------------777-|-----------|----------|-99--------|----99--------|

|-------999------------|-------999-|-99998888-|------6666-|--------8h9p8-|

|-666-77----666-77-----|-666-77----|----------|---99------|------7-------|2x

|----------------------|-----------|----------|-----------|--------------|

|----------------------|-----------|----------|-----------|--------------|

|---------|

|---------|

|----6~---|

|----6~---|

|----4~---|

|---------|

Bridge-

1.

Guitar1

|------------------------|-----------------------|

|------------------------|-----------------------|

|-6666666666666666666666-|----------444444-------|

|-6666666666666666666666-|---22222--444444-------|

|-4444444444444444444444-|---22222--222222-------|

|------------------------|---22222---------------|

Guitar2

|------------------------|---------------------|

|------------------------|---------------------|

|-1313131313131313131313-|---99999-------------|

|-xxxxxxxxxxxxxxxxxxxxxx-|---99999--999999-----|

|-1111111111111111111111-|---77777--999999-----|

|------------------------|----------999999-----|

2.

Guitar1

|-----------|-----------|-----------|------------|-----------------------|

|-----------|-----------|-----------|------------|-----------------------|

|-6-6-6-6-6-|-6-6-6-6-6-|-6-6-6-6-6-|-6-6-6-6-6--|----------444444-------|

|-6-6-6-6-6-|-6-6-6-6-6-|-6-6-6-6-6-|-6-6-6-6-6--|---22222--444444-------|

|-4-4-4-4-4-|-4-4-4-4-4-|-4-4-4-4-4-|-4-4-4-4-4--|---22222--222222-------|

|-----------|-----------|-----------|------------|---22222---------------|

Guitar2

|----------------|-----------------| |---------------------|

|----------------|-----------------| |---------------------|

|-13-13-13-13-13-|-13-13-13-13-13--| |---99999-------------|

|-xx-xx-xx-xx-xx-|-xx-xx-xx-xx-xx--|2x|---99999--999999-----|

|-11-11-11-11-11-|-11-11-11-11-11--| |---77777--999999-----|

|----------------|-----------------| |----------999999-----|

3.

Guitar1

|-----------|-----------|-----------|------------|-----------------------|

|-----------|-----------|-----------|------------|-----------------------|

|-6-6-6-6-6-|-6-6-6-6-6-|-6-6-6-6-6-|-6-6-6-6-6--|----------444444-------|

|-6-6-6-6-6-|-6-6-6-6-6-|-6-6-6-6-6-|-6-6-6-6-6--|---22222--444444-------|

|-4-4-4-4-4-|-4-4-4-4-4-|-4-4-4-4-4-|-4-4-4-4-4--|---22222--222222-------|

|-----------|-----------|-----------|------------|---22222---------------|

Guitar2

|----------------|--------------------| |---------------------|

|----------------|--------------------| |---------------------|

|-13-13-13-13-13-|-13-13-13-13-13-----| |---99999-------------|

|-xx-xx-xx-xx-xx-|-xx-xx-xx-xx-xx-----|2x|---99999--999999-----|

|-11-11-11-11-11-|-11-11-11-11-11--7+-| |---77777--999999-----|

|----------------|--------------------| |----------999999-----|

Do verse-

Guitar1

|-------------------------------------------------| |----------|

|-------------------------------------------------| |----------|

|--6666666--------666666-444444-------------------| |----------|

|--6666666-777777-666666-444444-777777--2-2-4-4---|2x|----7~----|

|--4444444-777777-444444-222222-777777--2-2-4-4---| |----7~----|

|----------777777---------------777777--2-2-4-4---| |----7~----|

Guitar2

|----------------------|-----------|----------|-----------|-77-----------|

|------------------777-|-----------|----------|-99--------|----99--------|

|-------999------------|-------999-|-99998888-|------6666-|--------8h9p8-|

|-666-77----666-77-----|-666-77----|----------|---99------|------7-------|2x

|----------------------|-----------|----------|-----------|--------------|

|----------------------|-----------|----------|-----------|--------------|

Outro-

|------------------|---------------|

|------------------|---------------|

|------------------|--66666666666--|

|--7777777777777---|--66666666666--|2x

|--7777777777777---|--44444444444--|

|--7777777777777---|---------------|

|-----------|

|-----------|

|-----------|

|---7~------|end

|---7~------|

|---7~------|

by f_sario@yahoo.com

frndster & yahoo

hi cordians...

Get this song at:  amazon.com sheetmusicplus.com

Share your thoughts

0 Comments found