Paramore

Paramore - Let This Go Solo guitar tab

------2---------------2-4-2-2------2------------------------------------------|

------------------------------------------------------------------------------|

-3-4------3-4-1---3-4----------3-4-----3-4-1------------------3-3-3-3-4-4-4-4-|

----------------------------------------------4-4-4-4-6-6-6-6-----------------|

------------------------------------------------------------------------------|

------------------------------------------------------------------------------|

------2---------------2-4-2-2------2----------0---|

----------------------------------------------2---|

-3-4------3-4-1---3-4----------3-4-----3-4-1------|

--------------------------------------------------|

--------------------------------------------------|

--------------------------------------------------|

Get this song at:  amazon.com sheetmusicplus.com

Share your thoughts

0 Comments found