Paramore

Paramore - Let This Go guitar tab

THis song is in standard tuning.

p=pull off

h=hammer

Into:

e------14------14--|------16------16-|-----14------14------14------14-|

B----12------12----|----12------12---|---12------12------12------12---|

G--15------15------|--15------15-----|-15------15------15------15-----|

D------------------|-----------------|--------------------------------|

A------------------|-----------------|--------------------------------|

E------------------|-----------------|--------------------------------|

e-----------------------|

B-----------------------|

G-------11--------------|

D--8----------9---------|

A--------9--------------|

E--6----------7---------|

x7 x7 x14

Verse:

e--9p7-----6h7----6h7---6h7---9p7|

B--------7------7-----7-----7----|

G--------------------------------|

D--------------------------------|

A--------------------------------|

E--------------------------------|

play this 8 times throughout the verse

there is also another riff in between that one that goes like this:

e-----------------|---------------|

B--7--------------|--7------------|

G---10------------|---10----------|

D-----11-11-8-8-8-|-----11-11-8-1-|

A-----------------|---------------|

E-----------------|---------------|

Chorus: play it 2 times

e---------------------------------|

B---------------------------------|

G--11-----------------------------|

D--------9------4------6-------9--|

A--9------------------------------|

E--------7------2------4-------7--|

x14 x14 x6 x6 hit one time and let ring

verse

then chorus again

then she says...let this go...let this go..

strum this while she sings

e---------------|

B---------------|

G------------11-|

D--8----9-------|

A------------9--|

E--6----7-------|

x7 x7 x14

play that twice

solo:

e------------|------------|-----------------------|

B------------|------------|-----------------------|

G------------|------------|-----------------------|

D--8--9--11--|--8--9---6--|--8--9----11----13--11-|

A------------|------------|-----------------------|

E--6--7--9---|--6--7---4--|--6--7----9-----11--9--|

x4 x4 x4 x4

e-------------|-----------------------|

B-------------|-----------------------|

G-------------|-----------------------|

D--8--9----11-|--8--9---6---4--6---8--|

A-------------|-----------------------|

E--6--7----9--|--6--7---4---2--4---6--|

x4 x4 x4 x4 x7

then play the first part of the solo again

then after the solo you go

e-----|

B-----|

G--11-|

D-----|

A--9--|

E-----|

strum it 7x and let it ring

then play the chorus 2 times

and it ends

hope u guys like it i think its pretty darn close!!Added by tabs-database.com and our distinguished partners

Get this song at:  amazon.com sheetmusicplus.com

Share your thoughts

0 Comments found