Paramore

Paramore - Let This Go Bass guitar tab

+++++++++++++++++++++++++

| Paramore- Let This Go |

+++++++++++++++++++++++++

Drop D

Intro

1.

|-----------------------------------|

|-----------------------------------|

|-88888888\\33333333-44444444-444444-|

|-----------------------------------|

2.

|---------------------------------------|

|---------------------------------------|

|---------------------44444444-44444444-|

|-9\\11111111-44444444-------------------|

3.

|----------------|

|----------------|

|--4~------4~----|

|-----6~------6~-|

Verse

"Maybe if my heart stops beating.."

4.

|----------------------------------------|

|----------------------------------------|

|-444~----------444~------33-------------|

|------666~--44------666~----111~------4-|

"And never will I have to.."

5.

|--------------------------------------------|

|--------------------------------------------|

|-444~----------444~------33-----------------|

|------666~--44------666~----111-111-111-111-|

Pre-Chorus

"Please don't get me wrong.."

6.

|-------------------------|

|-------------------------|

|-444~----------444~------|

|------666~----------666~-|

Chorus

"Because I'll never let this go.."

7.

|-------------------------------------|

|-------------------------------------|

|-------------------44444444-44444444-|

|-44444444-44444444-------------------|

"But I can't find the words to tell you.."

8.

|--------------------|

|--------------------|

|-----------333-3-4~-|

|-666x-666x----------|

"I don't wanna be alone.."

9.

|-------------------------------------|

|-------------------------------------|

|-------------------44444444-44444444-|

|-44444444-44444444-------------------|

"But now I feel like I don't know you.."

10.

|--------------------|

|--------------------|

|-----------333-3-4~-|

|-666x-666x----------|

Outro

"Whoa.."

11.

|--6---------|

|----8-6-5\\1-|

|------------|

|------------|

Verse

"One day you'll get sick of saying.."

12.

|----------------------------------------|

|----------------------------------------|

|-444~----------444~------33-------------|

|------666~--44------666~----111~------4-|

"And by then I'm sure I'll be pretending.."

13.

|--------------------------------------------|

|--------------------------------------------|

|-444~----------444~------33-----------------|

|------666~--44------666~----111-111-111-111-|

Pre-Chorus

"Please don't get me wrong.."

14. 15.

|-------------------------| |------|

|-------------------------| |------|

|-444~----------444~------| |-6666-|

|------666~--44------666~-| |------|

Chorus

"I'll never let this go.."

15.

|-------------------------------------|

|-------------------------------------|

|-------------------44444444-44444444-|

|-44444444-44444444-------------------|

"But I can't find the words to tell you.."

16.

|--------------------|

|--------------------|

|-----------333-3-4~-|

|-666x-666x----------|

"I don't wanna be alone.."

17.

|-------------------------------------|

|-------------------------------------|

|-------------------44444444-44444444-|

|-44444444-44444444-------------------|

"But now I feel like I don't know you.."

18.

|--------------------|

|--------------------|

|-----------333-3-4~-|

|-666x-666x----------|

"Let this go.." 2:12

19.

|---------------------------------------|

|---------------------------------------|

|-3/88888888-33333333-44444444-44444444-|

|---------------------------------------|

20.

|-------------------------------------|

|-------------------------------------|

|-88888888-33333333-44444444-44444444-|--x3

|-------------------------------------|

21.

|-------------------6~--------------|

|----------66666666----------6-8-6~-|

|-88888888-------------4-6-8--------|

|-----------------------------------|

Chorus

"I'll never let this go.."

22.

|--6h8~-6~-|

|----------|

|----------|

|----------|

"But I can't find the words to tell you.."

23.

|--------------------|

|--------------------|

|-----------333-3-4~-|

|-666x-666x----------|

"I don't wanna be alone.."

24.

|-------------------------------------|

|-------------------------------------|

|-------------------44444444-44444444-|

|-44444444-44444444-------------------|

"But now I feel like I don't know you.."

25.

|-------------------------|

|-------------------------|

|-----------333-3-4~-444~-|

|-666x-666x---------------|

"I'll never let this goooo.."

26.

|-------------------------------------|

|-------------------------------------|

|-------------------44444444-44444444-|

|-44444444-44444444-------------------|

"But I can't find the words to tell you.."

27.

|--------------------|

|--------------------|

|-----------333-3-4~-|

|-666x-666x----------|

"That now I feel like I don't know you.."

28.

|--------------------|

|--------------------|

|-----------333-3-4~-|

|-666x-666x----------|

There,

Great song

I bet this is 100% correct ;)

Kisses for Hayley Williams!! (K) (K)

Ooh I love her..

+++++++++++++++

Lyrics

Maybe if my heart stops beating

It won't hurt this much

And never will I have to answer

Again to anyone

Please don't get me wrong

Because I'll never let this go

But I can't find the words to tell you

I don't want to be alone

But now I feel like I don't know you

One day you'll get sick of

saying that everything's alright

And by then I'm sure I'll be pretending

Just like I am tonight

Please don't get me wrong

Because I'll never let this go

But I can't find the words to tell you

I don't want to be alone

But now I feel like I don't know you

Let this go, let this go

But I'll never let this go

But I can't find the words to tell you

I don't want to be alone

But now I feel like I don't know you

I'll never let this go

I can't find the words to tell you

That now I feel like I don't know you

+++++++++++++++

+++++++++++++++++++++++++++++++++

| RaiLeff |

| webmaster at tabs-database.com.com |

+++++++++++++++++++++++++++++++++Added by tabs-database.com and our distinguished partners

Get this song at:  amazon.com sheetmusicplus.com

Share your thoughts

0 Comments found