Paramore

Paramore - Let The Flames Begin Intro guitar tab

Intro/Verse:

-----------------------------------------------------|

-----------------------------------------------------|

----6---------6---------6----------6-----------------|

-----------------------------------------------------|

---------9---------9---------9-----------9-----------|

-----------------------------------------------------|

-----------------------------------------------------|

-----------------------------------------------------|

-----------------------------------------------------|

----7---------7---------7----------7-----------------|

---------9---------9---------9-----------9-----------|

-----------------------------------------------------|

-----------------------------------------------------|

-----------------------------------------------------|

-----------------------------------------------------|

----9---------9---------9----------9-----------------|

---------9---------9---------9-----------9-----------|

-----------------------------------------------------|

-----------------------------------------------------|

-----------------------------------------------------|

-----------------------------------------------------|

----9---------9---------9----------9-----------------|

---------9---------9---------9-----------9-----------|

-----------------------------------------------------|

Get this song at:  amazon.com sheetmusicplus.com

Share your thoughts

0 Comments found