Paramore

Paramore - Let The Flames Begin guitar tab

By-Francis

Location - Carmelite, Lucena City

Cp #- 09287150674

E-add- f_sario@yahoo.com (friendster)add me!

S H C lucena

Tuning- eb bb gb db Ab Db

Intro-

Guitar1

|------------------------------------------------------------------------|

|------------------------------------------------------------------------|

|----0----0----0----0---0---0---0---0----0----0----0----0----0----0----0-|

|-12---12---12---12---9---9---9---9---10---10---10---10---10---10---10---|4x

|------------------------------------------------------------------------|

|------------------------------------------------------------------------|

Guitar2 at 3rd time

|------6-6----------------|------6-6-------------------------|

|------------6------------|------------6------8--------------|

|---7------------7--5-----|---7------------7-----------------|

|-8-----------------------|-8--------------------------------|

|-------------------------|----------------------------------|

|-------------------------|----------------------------------|

Verse-

Guitar1

|------------------------------------------------------------------------|

|------------------------------------------------------------------------|

|----0----0----0----0---0---0---0---0----0----0----0----0----0----0----0-|

|-12---12---12---12---9---9---9---9---10---10---10---10---10---10---10---|4x

|------------------------------------------------------------------------|

|------------------------------------------------------------------------|

Guitar2 at 3rd time

|------6-6----------------|------6-6-------------------------|

|------------6------------|------------6------8--------------|

|---7------------7--5-----|---7------------7-----------------|

|-8-----------------------|-8--------------------------------|

|-------------------------|----------------------------------|

|-------------------------|----------------------------------|

Refrain-

Guitar1

|-------------------------------------------------------|

|-------------------------------------------------------|

|----10~----------------10~-----------------------------|

|--10~-----------------10~------------------------------|

|-8~------------------8~--------------------------------|

|-------------------------------------------------------|

Guitar2

|-------------------------------------------------------|

|--555-333--222-0000--555--333--------------------------|

|------------------------------2222-44444---------------|

|-------------------------------------------------------|

|-------------------------------------------------------|

|-------------------------------------------------------|

Chorus-

Guitar1

|-------------------------------------------------------|

|-------------------------------------------------------|

|-----------33333333------------55-5--5--5--------------|

|-555555555-33333333-111111111--55-5--5--5--------------|

|-555555555-11111111-111111111--33-3--3--3--------------|

|-555555555----------111111111--------------------------|

Guitar2

|-------------------------------------------------------|

|-------------------------------------------------------|

|-15151515-14/15---15151515-14/15-15-15-15-15-15--------|

|-x-x-x-x--x--x----x-x-x-x--x--x--x--x--x--x--x---------|

|-13131313-12/13---13131313-12/13-13-13-13-13-13--------|

|-------------------------------------------------------|

RepeaT VERSE 1x, Refrain , Chorus2x

Interlude

Guitar2 2x

|-10----------------------------| -----------|

|-------------------------------| -----------|

|---12-10h12--10----------------| -----------|

|----------------8--8p7h8-------|3x-7-8-s-10--|

|-------------------------10-10-| -----------|

|-------------------------------| -----------|

Repeat Chorus 2x

Outro-

Guitar2 2x

|-10----------------------------| -----------|

|-------------------------------| -----------|

|---12-10h12--10----------------| -----------|

|----------------8--8p7h8-------|3x-7-8-s-10--|

|-------------------------10-10-| -----------|

|-------------------------------| -----------|

Get this song at:  amazon.com sheetmusicplus.com

Share your thoughts

0 Comments found