Paramore

Paramore - Here Wo Go Again guitar tab

.:. Here We Go Again by PARAMORE, All We Know Is Falling (2006) .:.

===================================================================

I'm a 100% paramore-fan, and thus made some tabs for this song

since i couldn't see any decent ones... Here you go (again)(haha)

Pretty much sure it's accurate, if not feel free to diss my work,

I don't mind. So, Enjoy ;)

===================================================================

1.Jason Farro : Lead Guitarist / Tuning - DADGBe

2.Hunter Lamb : Rythm Guitarist / Tuning - DADGBe

*NOTICE* :

* = Stop the note, don't let it ring

/ = Slide

x = Muted note

~ = Let ring

+ = Play harder, so it stands out

[INTRO] (0:00 to 0:09)

*Guitar-1 : Josh F.

1st time 2nd time

e|------------------------------------|----------------------------------------|

B|------------------------------------|----------------------------------------|

G|---16--16-11--11/13--9--8--88/9\8---|---16--16-11--11/13--9--8--44/6-6-4/6---|

D|----x---x--x---x/-x--x--x--xx-x-x---|----x---x--x---x/-x--x--x--xx-x-x-x-x---|

A|---14--14--9---9/11--7--6--66/7\6---|---14--14--9---9/11--7--6--22/4-4-2/4---|

D|------------------------------------|----------------------------------------|

*Guitar-2 : Hunter L.

e|----------------------| |----------------------|

B|----------------------| |----------------------|

G|---9999-----x-x-x-x---| x 2 or |---9999----13131313---| x 2

D|---9999----11111111---| |---9999----13131313---|

A|---7777----13131313---| |---7777----11111111---|

D|---7777----13131313---| |---7777----11111111---|

[CHORUS] (0:25 to 0:56 )

Guitar-1 : Josh F.

e|-----------------------------------------------|----------------------------------------------|

B|-----------------------------------------------|----------------------------------------------|

G|-9999999999999999--x-x-x-x-x-x-x-x-88889999-0--|-9999999999999999--x-x-x-x-x-x-x-x-99999999---|

D|-9999999999999999-1111111111111111-88889999-0--|-9999999999999999-1111111111111111-99999999---|

A|-7777777777777777-1313131313131313-66667777-0--|-7777777777777777-1313131313131313-66666666---|

D|-7777777777777777-1313131313131313----------0--|-7777777777777777-1313131313131313-66666666---|

e|-----------------------------------------------|-------------------------------------------------|

B|-----------------------------------------------|-------------------------------------------------|

G|-9999999999999999--x-x-x-x-x-x-x-x-88889999-0--|-9999999999999999--x-x-x-x-x-x-x-x-------9999999-|

D|-9999999999999999-1111111111111111-88889999-0--|-9999999999999999-1111111111111111-------9999999-|

A|-7777777777777777-1313131313131313-66667777-0--|-7777777777777777-1313131313131313-pause-6666666-|

D|-7777777777777777-1313131313131313----------0--|-7777777777777777-1313131313131313-------6666666-|

Guitar-2 : Hunter L.

e|----------------------------------------------------------------------------|

B|---9-10-10-10-10-10-12-12-12-12-10-10-9-9-9-9-9-9-9-9-9-9-9-9-9-9-9-9-9-9---|

G|-9--------------------------------------------------------------------------|

D|----------------------------------------------------------------------------|

A|----------------------------------------------------------------------------|

D|----------------------------------------------------------------------------|

Then 3x times :

e|------------------------------------------12-12-12-12-11-11-11-11---------------------------|

B|---9-10-10-10-10-10-12-12-12-12-10-10-9-9-------------------------12-12-12-12-12-12-12-12---|

G|-9------------------------------------------------------------------------------------------|

D|--------------------------------------------------------------------------------------------|

A|--------------------------------------------------------------------------------------------|

D|--------------------------------------------------------------------------------------------|

Repeat [INTRO] (0:57 to 1:09) w/modification

*Guitar-1 : Josh F.

1st time

e|------------------------------------|

B|------------------------------------|

G|---16--16-11--11/13--9--8--88/9\8---| **Play once without Guitar 2, then

D|----x---x--x---x/-x--x--x--xx-x-x---|

A|---14--14--9---9/11--7--6--66/7\6---|

D|------------------------------------|

*Guitar-1 : Josh F.

1st time 2nd time

e|------------------------------------|----------------------------------------|

B|------------------------------------|----------------------------------------|

G|---16--16-11--11/13--9--8--88/9\8---|---16--16-11--11/13--9--8--44/6-6-4/6---|

D|----x---x--x---x/-x--x--x--xx-x-x---|----x---x--x---x/-x--x--x--xx-x-x-x-x---|

A|---14--14--9---9/11--7--6--66/7\6---|---14--14--9---9/11--7--6--22/4-4-2/4---|

D|------------------------------------|----------------------------------------|

*Guitar-2 : Hunter L.

e|----------------------| |----------------------|

B|----------------------| |----------------------|

G|---9999-----x-x-x-x---| x 2 or |---9999----13131313---| x 2

D|---9999----11111111---| |---9999----13131313---|

A|---7777----13131313---| |---7777----11111111---|

D|---7777----13131313---| |---7777----11111111---|

Repeat [VERSE 1]x4 (1:10 to 1:24)

Repeat [CHORUS]x4 (1:25 to 1:55)

Repeat [INTRO]x2 (1:56 to 2:12) w/modification

*Guitar-1 : Josh F.

1st time

e|------------------------------------|------------------------------------|

B|------------------------------------|------------------------------------|

G|---16--16-11--11/13--9--8--88/9\8---|---16--16-11--11/13--9--8--44/6-6---|

D|----x---x--x---x/-x--x--x--xx-x-x---|----x---x--x---x/-x--x--x--xx-x-x---|

A|---14--14--9---9/11--7--6--66/7\6---|---14--14--9---9/11--7--6--22/4-4---|

D|------------------------------------|------------------------------------|

2nd time

e|------------------------------------|--------------------------------|

B|------------------------------------|--------------------------------|

G|---16--16-11--11/13--9--8--88/9\8---|---16--16-11--11/13--99998888---|

D|----x---x--x---x/-x--x--x--xx-x-x---|----x---x--x---x/-x--xxxxxxxx---|

A|---14--14--9---9/11--7--6--66/7\6---|---14--14--9---9/11--77776666---|

D|------------------------------------|--------------------------------|

[BRIDGE/SOLO] (2:13 to 2:28)

Guitar-1 : Josh F.

e|---00000000-00000000-00000000------------------|---00000000-00000000-00000000--12121212111111---|

B|---99977997-99977997-99977997--1212--1010-99---|---99977997-99977997-99977997---9-9-9-9-9-9-9---|

G|---99999999-99999999-99999999--1313---9-9-99---|---99999999-99999999-99999999-------------------|

D|---00000000-00000000-22222222------------------|---00000000-00000000-22222222-------------------|

A|---------------------00000000------------------|---------------------00000000-------------------|

D|-----------------------------------------------|------------------------------------------------|

* * * * **

Guitar-2 : Hunter L. ~ Strumming Pattern differs from Chorus ~

e|------------------------------------------|---------------------------------------------|

B|------------------------------------------|---------------------------------------------|

G|---9999999999999999----1313131313131313---|---9999999999999999----1313131313131313+13---|

D|---9999999999999999----1313131313131313---|---9999999999999999----1313131313131313+13---|

A|---7777777777777777----1111111111111111---|---7777777777777777----1111111111111111+11---|

D|---7777777777777777----1111111111111111---|---7777777777777777----1111111111111111+11---|

Repeat [CHORUS] (2:29 to 3:00)

[OUTRO]

Guitar-1 : Josh F.

End on this

e|---21-----------21-----------21-----------------------| |-----|

B|---------21-----------21-----------21-----19----19----| |-----|

G|------18----18-----18----18-----18----18-----18----18-| x 3 |-21~-|

D|------------------------------------------------------| |-----|

A|------------------------------------------------------| |-----|

D|------------------------------------------------------| |-----|

Guitar-2 : Hunter L.

e|----------------------------------|

B|----------------------------------|

G|---99999999----1313131313131313---| x 3 then

D|---99999999----1313131313131313---|

A|---77777777----1111111111111111---|

D|----------------------------------|

******** * * * * * * * *

e|------------------------------------------------|

B|------------------------------------------------|

G|---99999999----1313131313131313---88888888----9~|

D|---99999999----1313131313131313---88888888-(0)9~|

A|---77777777----1111111111111111---66666666-(0)7~|

D|-------------------------------------------(0)7~|

********

If you have any suggestions concerning thy tabs, please mail me ;

lotus_91@hotmail.fr, thankz.

Get this song at:  amazon.com sheetmusicplus.com

Share your thoughts

0 Comments found