Paramore

Paramore - Here We Go Again guitar tab

Song: Here We Go Again

Artist: Paramore

Album: All We Know Is Falling

Track: 5

Lyrics: Hayley Williams

Music: Zac Farro, Jeremy Davis, Hunter Lamb, Josh Farro, and Hayley Williams

Tuning: Standard (EADGBe)

Tone: Intro, verses, pre-verse, and outro (Clean)

Chorus, bridge, and solo (Distorted)

Guitarists: Josh Farro (Guitar 1/Lead)

Hunter Lamb (Guitar 2/Rhythm)

Tabbed By: Diana Hernandez

Legend: h - Hammer-on

p - Pull-off

/ - Slide up

~ - Let ring

x - mute string

__________

|GUITAR ONE|

INTRO (0:00 - 0:08) X1

e-|----------------------------------------------|

B-|----------------------------------------------|

G-|----------------------------------------------|

D-|-9-9---6---------------9-9----6---------------|

A-|------9---7-6-6-6h7p6-------9---7-6-----------|

E-|------------------------------------7-7/9-9~--|

VERSE (0:08 - 0:24) X4

e-|----------------------------------------------|

B-|--9---9---10---12---12---12---12---12---12----|

G-|----9---9----9----9----9----9----9----9----9--|

D-|----------------------------------------------|

A-|----------------------------------------------|

E-|----------------------------------------------|

CHORUS (0:24 - 0:56) X4

e-|----------------------------------------------|

B-|----------------------------------------------|

G-|-9-9-9-9-11-11-11-11-16-16-16-16-14-14-13-13--|

D-|-x-x-x-x--x--x--x--x--x--x--x--x--x--x--x--x--|

A-|-7-7-7-7--9--9--9--9-14-14-14-14-12-12-11-11--|

E-|----------------------------------------------|

e-|--12-12-12-12-11-11-11-11-9-9-9-9-11-11-11-11--|

B-|-----------------------------------------------|

G-|-----------------------------------------------|

D-|-----------------------------------------------|

A-|-----------------------------------------------|

E-|-----------------------------------------------|

PRE-VERSE (0:56 - 1:08) X1

e-|--------------------------------------------------------------------|

B-|--------------------------------------------------------------------|

G-|--------------------------------------------------------------------|

D-|-9-9---6---------------9-9---6---------------9-9----6---------------|

A-|------9---7-6-6-6h7p6-------9---7-6-6-6h7p6-------9---7-6-----------|

E-|----------------------------------------------------------7-7/9-9~--|

VERSE (1:08 - 1:23) X4

CHORUS (1:23 - 1:55) X4

BRIDGE (1:55 - 2:12) X1

e-|------------------------------------------------------------------------------------------------|

B-|------------------------------------------------------------------------------------------------|

G-|------------------------------------------------------------------------------------------------|

D-|-9-9---6---------------9-9----6-----------------9-9---6---------------9-9----6------------------|

A-|------9---7-6-6-6h7p6-------9---7-6------------------9---7-6-6-6h7p6-------9---7-7-7-7-6-6-6-6--|

E-|------------------------------------7-7/9-9~----------------------------------------------------|

SOLO (2:12 -2:28) X1

e-|-------------------------------------------------------------------7-7----------------|

B-|--9-9-9-7-7-9-9-7-9-9-9-7-7-9-9-7-9-9-9-7-7-9-9-7-9-9-9-7-7-9-9-7------10-10-9-9-7-7--|

G-|--------------------------------------------------------------------------------------|

D-|--------------------------------------------------------------------------------------|

A-|--------------------------------------------------------------------------------------|

E-|--------------------------------------------------------------------------------------|

e-|-----------------------------------------------------------------------------------|

B-|--9-9-9-7-7-9-9-7-9-9-9-7-7-9-9-7-9-9-9-7-7-9-9-7-9-9-9-7-7-9-9-7------------------|

G-|------------------------------------------------------------------9-9-9-9-8-8-8-8--|

D-|-----------------------------------------------------------------------------------|

A-|-----------------------------------------------------------------------------------|

E-|-----------------------------------------------------------------------------------|

CHORUS (2:28 - 3:00) X4

OUTRO (3:00 - 3:34) X4

e-|-----16---16---16---14---16---12~--|

B-|--14---14---14---14---14---14------|

G-|-----------------------------------|

D-|-----------------------------------|

A-|-----------------------------------|

E-|-----------------------------------|

__________

|GUITAR TWO|

INTRO (0:00 - 0:08) X2

e-|-------------------|

B-|-------------------|

G-|--2-2-2-2-6-6-6-6--|

D-|--2-2-2-2-6-6-6-6--|

A-|--0-0-0-0-4-4-4-4--|

E-|-------------------|

VERSE (0:08 - 0:24) X4

e-|-------------------|

B-|-------------------|

G-|--2-2-2-2-6-6-6-6--|

D-|--2-2-2-2-6-6-6-6--|

A-|--0-0-0-0-4-4-4-4--|

E-|-------------------|

CHORUS (0:24 - 0:56) X4

e-|------------------------------------------------------------------|

B-|------------------------------------------------------------------|

G-|---------------------------------6-6-6-6-6-6-6-6-8-8-8-8-8-8-8-8--|

D-|-7-7-7-7-7-7-7-7-7-7-7-7-7-7-7-7-6-6-6-6-6-6-6-6-8-8-8-8-8-8-8-8--|

A-|-7-7-7-7-7-7-7-7-7-7-7-7-7-7-7-7-4-4-4-4-4-4-4-4-6-6-6-6-6-6-6-6--|

E-|-5-5-5-5-5-5-5-5-5-5-5-5-5-5-5-5----------------------------------|

PRE-VERSE (1:00 - 1:08) X2

e-|-------------------|

B-|-------------------|

G-|--2-2-2-2-6-6-6-6--|

D-|--2-2-2-2-6-6-6-6--|

A-|--0-0-0-0-4-4-4-4--|

E-|-------------------|

VERSE (1:08 - 1:23) X4

CHORUS (1:23 - 1:55) X4

BRIDGE (1:55 - 2:12) REST

SOLO (2:12 - 2:28) X2

e-|------------------------------------------------------------------|

B-|------------------------------------------------------------------|

G-|---------------------------------6-6-6-6-6-6-6-6-6-6-6-6-6-6-6-6--|

D-|-7-7-7-7-7-7-7-7-7-7-7-7-7-7-7-7-6-6-6-6-6-6-6-6-6-6-6-6-6-6-6-6--|

A-|-7-7-7-7-7-7-7-7-7-7-7-7-7-7-7-7-4-4-4-4-4-4-4-4-4-4-4-4-4-4-4-4--|

E-|-5-5-5-5-5-5-5-5-5-5-5-5-5-5-5-5----------------------------------|

CHORUS (2:28 - 3:00) X4

OUTRO (3:00 - 3:34) X1

e-|-------------------------------------------------------------------|

B-|-------------------------------------------------------------------|

G-|--2-2-2-2-2-2-2-2-6-6-6-6-6-6-6-6-2-2-2-2-2-2-2-2-6-6-6-6-6-6-6-6--|

D-|--2-2-2-2-2-2-2-2-6-6-6-6-6-6-6-6-2-2-2-2-2-2-2-2-6-6-6-6-6-6-6-6--|

A-|--0-0-0-0-0-0-0-0-4-4-4-4-4-4-4-4-0-0-0-0-0-0-0-0-4-4-4-4-4-4-4-4--|

E-|-------------------------------------------------------------------|

e-|--------------------------------------------------------------------------------------|

B-|--------------------------------------------------------------------------------------|

G-|--2-2-2-2-2-2-2-2-6-6-6-6-6-6-6-6-2-2-2-2-2-2-2-2-6-6-6-6-6-6-6-6-8-8-8-8-8-8-8-8-2~--|

D-|--2-2-2-2-2-2-2-2-6-6-6-6-6-6-6-6-2-2-2-2-2-2-2-2-6-6-6-6-6-6-6-6-8-8-8-8-8-8-8-8-2~--|

A-|--0-0-0-0-0-0-0-0-4-4-4-4-4-4-4-4-0-0-0-0-0-0-0-0-4-4-4-4-4-4-4-4-6-6-6-6-6-6-6-6-0~--|

E-|--------------------------------------------------------------------------------------|Added by tabs-database.com and our distinguished partners

Get this song at:  amazon.com sheetmusicplus.com

Share your thoughts

0 Comments found