Paramore

Paramore - Here We Go Again Bass guitar tab

It took me awhile to figure out the song. I love it a lot.

If there are any errors, contact me via myspace. I rarely check my e-mail.

To add me, my e-mail is webmaster at tabs-database.com.com

intro

G|---------------------------------------------------1------|

D|-------1h21-----------1h21---------1h21--------2-4----2---|

A|-0-0-0-------4-4-4----------0-0-0-------4-4-4-------------|

E|----------------------------------------------------------|

and here we go again...

G|-------------------------------------------------------|

D|-------1h21-----------1h21---------1h21--------------2-|

A|-0-0-0-------4-4-4----------0-0-0-------4-4-4----------|

E|------------------------------------------------22-4---|

so we just take it back..

---------------------------------------------------1------|

-------1h21-----------1h21---------1h21--------2-4----2---|

-0-0-0-------4-4-4----------0-0-0-------4-4-4-------------|

----------------------------------------------------------|

Chorus (0:25)

G|------------------------------------------------|

D|------------------------------------------------|

A|-0000-0-00-000-000--4444-4444--6666-7777--------|

E|------------------------------------------------|

Second time she repeats the chorus, add the E note.

G|------------------------------------------------|

D|-------------2----------------------------------|

A|-0000-0000-0---00-000-4444-4444--6666-7777------|x2

E|------------------------------------------------|

end the chorus with this: (0:49)

G|--------------------------------------------|

D|-------------2------------------------------|

A|-0000-0000-0---00-000-4444-4444-----------0~|

E|--------------------------------4444-4444---|

Repeat Intro x2

Chorus (1:25) x4

Breakdown (2:05)

G|----------------------------------------------|

D|----------------------------------------------|

A|-00000----2----44444-----00000---2---44444444-|

E|--------2----4-------020-------2---4----------|

(2:13)

G|-----------------------------------------------------------------|

D|-----------------------------------------------------------------|

A|-0000000000000000-44444444-6666-7777-0000000000000000-44444444---|

E|---------------------------------------------------------------4-|

Back to Chorus (2:29)

Breakdown II (3:01)not too sure about this part.

G|----------------------------------| ---------------------|

D|----------------------------------| ---------------------|

A|-0-0-0-0-0-0----------24-4-4------|x7 ---44444444-666666-7~|

E|----------------020-4--------54---| ---------------------|

Hope you enjoyed the tab. :)Added by tabs-database.com and our distinguished partners

Get this song at:  amazon.com sheetmusicplus.com

Share your thoughts

0 Comments found