Paramore

Paramore - Hallelujah guitar tab

Song: Halelujah

Band: Paramore

tabbed by Trevor Shintaku =D

webmaster at tabs-database.com.com

for those of you lucky enough to hear this song

in its electric version please enjoy.

i spent about 4 hours tabbing and it sound great to me ^^

please view in courier new font for best results

tuned in DROPPED D

0:00

intro/chorus; guitar 2

e|--7-7-7-9-9-9-11-11-11-14-14-14-14-14-14--

b|-----------------------------11-11-11-11--

g|------------------------------------------ play it all 4 times

d|------------------------------------------

a|------------------------------------------

D|------------------------------------------

0:08

intro/chorus; guitar 1

e|--------------------------------

b|--------------------------------

g|-11----------8----------4-------

d|--9----------6----------2-------

a|--9-(x16)----6-(x8)-----2-(x8)--

D|--9----------6----------2-------

0:21

verse; guitar 1

e|-------------------------------

b|-------------------------------

g|-11-11-11~--8-8-8~--10-10-10~-- play it all 4 times

d|--9--9--9~--6-6-6~---8--8--8~--

a|--9--9--9~--6-6-6~---8--8--8~--

D|--9--9--9~--6-6-6~---8--8--8~--

0:34

verse; guitar 2

e|--7-7-9-9-11-11-12-12-14-14-14-14-14-14-- \\

b|----------------------------------------- \\

g|----------------------------------------- \\

d|----------------------------------------- \\

a|----------------------------------------- \\

D|----------------------------------------- \\

play all 2 times

e|-7-7-9-9-11-11-12-12-11-11-9-9--11-11-- / e|-7~-

b|--------------------------------------- / on the second time, end on b|----

g|--------------------------------------- / g|----

d|--------------------------------------- / d|----

a|--------------------------------------- / a|----

D|--------------------------------------- / D|----

0:47 intro/chorus; guitar 2

0:54 intro/chorus; guitar 1

1:07

in-chorus riff; guitar 2

e|------11~-----9~-----11~-----9~--

b|---------------------------------

g|--8/9-----8/9----8/9-----8/9----- play twice

d|---------------------------------

a|---------------------------------

D|---------------------------------

1:20 verse 2; guitar 1

1:33 verse 2; guitar 2

1:46

verse 2 riff; guitar 2

e|-7-7-7-9-9-9-11-11-11-14-14-14-14-14-14------12------12------12--

b|----------------------------11-11-11-11-11h12---11h12---11h12----

g|-----------------------------------------------------------------

d|-----------------------------------------------------------------

a|-----------------------------------------------------------------

D|-----------------------------------------------------------------

1:53 intro/chorus; guitar 1

1:53 intro/chorus; guitar 2

2:06 in-chorus riff; guitar 2

2:19

bridge; guitar 1

e|------------------------------------ \\

b|------------------------------------ \\

g|--4-4-4--4-4-4--8-8-8--11-11-11-11-- \\

d|--2-2-2--2-2-2--6-6-6---9--9--9--9-- \\

a|--2-2-2--2-2-2--6-6-6---9--9--9--9-- \\

D|--2-2-2--4-4-4--6-6-6---9--9--9--9-- \\

play four times

e|------------------------------ / *Note* guitar 1 stops at 2:46 to play

b|------------------------------ / a small solo at the same time as guitar 2

g|--4-4-4--4-4-4--6xx-6xx-6--6-- /

d|--2-2-2--2-2-2--4xx-4xx-4--4-- /

a|--2-2-2--2-2-2--4xx-4xx-4--4-- /

D|--2-2-2--4-4-4--4xx-4xx-4--4-- /

bridge; guitar 2

2:26

e|--7-7-7-9999-777-7-7-7-777-66/--

b|--------------------------------

g|--------------------------------

d|--------------------------------

a|--------------------------------

D|--------------------------------

bridge; guitar 2

2:30

e|--777-666-11-11-11-11-11-11-11-11-777-666------------------

b|------------------------------------------7-7-7-7-7-7-7-7--

g|-----------------------------------------------------------

d|-----------------------------------------------------------

a|-----------------------------------------------------------

D|-----------------------------------------------------------

bridge; guitar 1

2:46

e|--------------------7-9-11-12-11/--

b|--/7-7-7-7-------------------------

g|-----------9999-888----------------

d|-----------------------------------

a|-----------------------------------

D|-----------------------------------

bridge; guitar 2

2:46

e|--777-666----777-666-----

b|----------4~---------7~--

g|-------------------------

d|-------------------------

a|-------------------------

D|-------------------------

2:53 intro/chorus; guitar 1

2:53 intro/chorus; guitar 2

3:07 in-chorus riff; guitar 2

3:20

end; guitar 1

e|-------------

b|-------------

g|-11-11--11~--

d|--9--9---9~--

a|--9--9---9~--

D|--9--9---9~--Added by tabs-database.com and our distinguished partners

Get this song at:  amazon.com sheetmusicplus.com

Share your thoughts

0 Comments found