Paramore

Paramore - Hallelujah Bass guitar tab

Song:Hallelujah

Artist: Paramore

Album: Riot

Hope that you maylike this thanks. Just listen to the song for you to know

where the bass is and the timing. thanks

Intro

G|------------------------------------|

D|------------------------------------|

A|------------------------------------| (2x)

E|--7777777777777777666666000000000---|

Verse

G|----------------------------------------|

D|----------------------------------------|

A|----------------------------------------| (2x)

E|--77-7~-44-4~-22-2~-00-0~--44-4~-22-2~--|

G|------------------------------------|

D|------------------------------------|

A|------------------------------------|

E|--777777777777777744444444-0-0-0-0--|

Chorus

G|------------------------------------|

D|------------------------------------|

A|------------------------------------| (2x)

E|--7777777777777777666666000000000---|

G|------------------------------------------------|

D|------------------------------------------------|

A|------------------------------------------------| (2x)

E|--7-77-7-77-7-77-7-77-6-66-6-66-0-00-0-00-0-00--|

Verse II

G|----------------------------------------|

D|----------------------------------------|

A|----------------------------------------| (2x)

E|--77-7~-44-4~-22-2~-00-0~--44-4~-22-2~--|

G|------------------------------------|

D|------------------------------------|

A|------------------------------------|

E|--777777777777777744444444-0-0-0-0--|

Chorus

G|------------------------------------|

D|------------------------------------|

A|------------------------------------| (2x)

E|--7777777777777777666666000000000---|

G|------------------------------------------------|

D|------------------------------------------------|

A|------------------------------------------------| (2x)

E|--7-77-7-77-7-77-7-77-6-66-6-66-0-00-0-00-0-00--|

Riff:

G|---------------------------------------------------------|

D|---------------------------------------------------------|

A|--666777999-14-14-14-14-14-14--666777999-11-11-11-11-11--| (4x)

E|---------------------------------------------------------|

G|--------------------------------|

D|--------------------------------|

A|--222222222222222222244466676~--|

E|--------------------------------|

Chorus

G|------------------------------------|

D|------------------------------------|

A|------------------------------------| (2x)

E|--7777777777777777666666000000000---|

G|------------------------------------------------|

D|------------------------------------------------|

A|------------------------------------------------| (2x)

E|--7-77-7-77-7-77-7-77-6-66-6-66-0-00-0-00-0-00--|

End at

G|---------|

D|---------|

A|---------|

E|--77-7~--|

Thank you!

Added by tabs-database.com and our distinguished partners

Get this song at:  amazon.com sheetmusicplus.com

Share your thoughts

0 Comments found