Paramore

Paramore - Franklin guitar tab

Band: Paramore

Song: Franklin

Album: All We Know Is Falling

Tabber: Matt Florio, www.myspace.com/mattflorio or Shempashland@yahoo.com

Guitar 1: Acoustic Capo 5th Fret

Guitar 2: Electric Standard

Chords:

Em7 022033

G 320033

Cadd9 X32033

Gadd9 2XX033

Asus X02233

Intro/Verse 1

Guitar 1

Em7 G Cadd9 G Gadd9

Guitar 2

e-3------3-------3----------------|

b-----0------0-------0---3-5-3----|

g---5---5--5---5---5---5-------5--|

d---------------------------------|

a---------------------------------|

E---------------------------------|

** This could be played with the Capo like this:

e-----------------------------------|

b-3-------3-------3-----------------|

g---0---0---0---0---0---0-2-4-2-0---|

d-----4-------4-------4-------------|

a-----------------------------------|

E-----------------------------------|

Chorus

Guitar 1

Cadd9 Em7 Dadd9

Guitar 2

e------------------------|

b------------------------|

g------------------------|

d--3----7----5-----------|

a--3----7----5-----------|

E--1----5----3-----------|

Pre Verse 2

Guitar 1 is silent

Guitar 2 (1x)

e-3------3-------3----------------|

b-----0------0-------0---3-5-3----|

g---5---5--5---5---5---5-------5--|

d---------------------------------|

a---------------------------------|

E---------------------------------|

Verse 2

Guitar 1

Em7 G Cadd9 G Gadd9

Guitar 2

e-3------3-------3----------------|

b-----0------0-------0---3-5-3----|

g---5---5--5---5---5---5-------5--|

d---------------------------------|

a---------------------------------|

E---------------------------------|

Chorus

Guitar 1

Cadd9 Em7 Dadd9

Guitar 2

e------------------------|

b------------------------|

g------------------------|

d--3----7----5-----------|

a--3----7----5-----------|

E--1----5----3-----------|

Breakdown

Guitar 1

(Cadd9) (Asus)

e------------------------|

b----3--------3----------|

g---0-0------2-2---------|

d--2---2----2---2--------|

a-3-----3--0-----0-------|

E------------------------|

Guitar 2 is silent

Guitar 1

(Cadd9) (Asus)

e------------------------|

b----3--------3----------|

g---0-0------2-2---------|

d--2---2----2---2--------|

a-3-----3--0-----0-------|

E------------------------|

Guitar 2

~ = let ring out

e-------------------|

b--13~--------------|

g-------------------|

d-------------------|

a-------------------|

E-------------------|

Guitar 1

(Cadd9) (Asus)

e------------------------|

b----3--------3----------|

g---0-0------2-2---------|

d--2---2----2---2--------|

a-3-----3--0-----0-------|

E------------------------|

Guitar 2

e---10~--------------------|

b--------------------------|

g------------12~-----------|

d--------------------------|

a--------------------------|

E--------------------------|

Guitar 1

(Cadd9) (Asus)

e------------------------|

b----3--------3----------|

g---0-0------2-2---------|

d--2---2----2---2--------|

a-3-----3--0-----0-------|

E------------------------|

Guitar 2

e----------3/5--8-----------|

b---------------------------|

g-------9-------------------|

d-10--9---------------------|

a---------------------------|

E---------------------------|

Bridge

Guitar 1

Cadd9 Em7 Dadd9 (3x)

Guitar 2 (3x)

e--15(16x)-12-13-12---------------|

b-------------------15-13-12------|

g----------------------------12---|

d---------------------------------|

a---------------------------------|

E---------------------------------|

Guitar 1

Cadd9 Em7 Dadd9

Guitar 2

e---15(16x)-12-13-12------------|

b--------------------15-13------|

g-------------------------------|

d-------------------------------|

a-------------------------------|

E-------------------------------|

Outro

Guitar 1

Cadd9 Em7 Dadd9 (2x)

Get this song at:  amazon.com sheetmusicplus.com

Share your thoughts

0 Comments found