Paramore

Paramore - Franklin Bass guitar tab

Franklin - Paramore

-------------------------------------------------------------------------------

Tabbed By : Dvanwyk

e-mail: webmaster at tabs-database.com.com

Hey guys this is thesong franklin by paramore in standard Tunning

Tuning:standard Tunning

Verse 1& 2 (4 times)

G|-----------------------------------------------------------------------------------|

D|-----------33-3--------------------------------------------------------------------|

A|-----33-3--------33-22-------------------------------------------------------------|

E|55-5-------------------------------------------------------------------------------|

Chorus (Twice)

G|----------------------------------------------|

D|----------------------------------------------|

A|---------------------------------------33-22--|

E|11-1111-55-55-33-11--11-1111-55-55-33---------|

Bridge

G|-------------------------------------------------------------------------------------|

D|-------------------------------------------------------------------------------------|

A|---------5~--------------------------5~----------------------------------------------|

E|1~-------------5---3-------1-~--------------5--3-------------------------------------|

G|----------------7h9p7~--9-7-5----5----------------------------------------------------|

D|-------------------------------7------------------------------------------------------|

A|---------5~---------------------------------------------------------------------------|

E|1~------------------------------------------------------------------------------------|

G|---------------------------------------------------------------------------------|

D|---------------------------------------------------------------------------------|

A|------5~-------------------------------------------------------------------------|

E|1~----------5-3-1----------------------------------------------------------------|

Repeat 4 Times

G|-----------------------|

D|-----------------------|

A|----------5555---------|

E|11111111--------55-33--|

| / slide up

| \\ slide down

| h hammer-on

| p pull-off

| ~ vibrato

| + harmonic

| x Mute note

===============================================================================Added by tabs-database.com and our distinguished partners

Get this song at:  amazon.com sheetmusicplus.com

Share your thoughts

0 Comments found