Paramore

Paramore - Fences guitar tab

By-Francis

Location - Carmelite, Lucena City

Cp #-09287150674

E-add- f_sario@yahoo.com (friendster)add me!

School- Sacred Heart College

Guitar1(e b g d A E)

Guitar2(e b g d A E)

INTRO-

GUITAR1

|--------2~----|--------2~----|

|-------3~-----|-------3~-----|

|------4~------|------4~------|

|-----4~-------|-----4~-------|

|----2~--------|----2~--------|

|--------------|--------------|

Verse-

|--------2~----|--------2~----|

|-------3~-----|-------3~-----|

|------4~------|------4~------|

|-----4~-------|-----4~-------|

|----2~--------|----2~--------|

|--------------|--------------|

REFRAIN1

|--x-x-x-x-x-x--|--x-x-x-x-x--|

|--8-8-8-8-8-8--|--5-5-5-5-5--|

|--9-9-9-9-9-9--|--6-6-6-6-6--|

|--9-9-9-9-9-9--|--7-7-7-7-7--|

|--7-7-7-7-7-7--|--7-7-7-7-7--|

|---------------|--5-5-5-5-5--|

VERSE2-

|-------2~----|

|------3~-----|

|-----4~------|

|----4~-------|

|---2~--------|

|-------------|

REFRAIN2

|--------|------|-------|---------|-----------|

|--------|------|-------|---------|-----------|

|-----9~-|---7~-|----6~-|-----9~--|------6~---|

|----9~--|--7~--|---7~--|----9~---|-----7~----|

|---7~---|-5~---|--7~---|---7~----|----7~-----|

|--------|------|-5~----|---------|---5~------|

Chorus-

Guitar1

|----------------------------|--------|--------|

|----------------------------|--------|--------|

|--4-------------------------|--------|--------|

|--4-------------------------|--5-----|--2--4--|2x

|--2-------------------------|--5-----|--2--4--|

|----------------------------|--3-----|--0--2--|

Guitar2

|--1010101010-9-9-9-9--7777--|--------|

|--1212121212-12121212-7777--|---7777-|

|----------------------------|---7777-|

|----------------------------|--------|2x

|----------------------------|--------|

|----------------------------|--------|

Guitar1 & 2

|------------|--------------|

|------------|--------------|

|------------|--------------|

|--5-555555--|--2--2--2--2--|

|--5-555555--|--2--2--2--2--|

|--3-333333--|--0--0--0--0--|

|--------------------X---|

|--------------------X---|

|--------------------X---|

|--5-5555555-7777-8--X---|

|--5-5555555-7777-8--X---|

|--3-3333333-5555-6--X---|

Continued..

Guitar1

|--------2~----|--------2~----|

|-------3~-----|-------3~-----|

|------4~------|------4~------|

|-----4~-------|-----4~-------|

|----2~--------|----2~--------|

|--------------|--------------|

Verse-

|--------2~----|--------2~----|

|-------3~-----|-------3~-----|

|------4~------|------4~------|

|-----4~-------|-----4~-------|

|----2~--------|----2~--------|

|--------------|--------------|

REFRAIN1

|--x-x-x-x-x-x--|--x-x-x-x-x--|

|--8-8-8-8-8-8--|--5-5-5-5-5--|

|--9-9-9-9-9-9--|--6-6-6-6-6--|

|--9-9-9-9-9-9--|--7-7-7-7-7--|

|--7-7-7-7-7-7--|--7-7-7-7-7--|

|---------------|--5-5-5-5-5--|

REFRAIN2

|--------|------|-------|---------|-----------|

|--------|------|-------|---------|-----------|

|-----9~-|---7~-|----6~-|-----9~--|------6~---|

|----9~--|--7~--|---7~--|----9~---|-----7~----|

|---7~---|-5~---|--7~---|---7~----|----7~-----|

|--------|------|-5~----|---------|---5~------|

Repeat Chorus

Then

|-----------|-----------|-----------|-----------|

|-----------|-----------|-----------|-----------|

|-----------|-----------|---7---7---|-----------|

|---2---2---|---5---5---|---7---7---|---7---7---|

|---2---2---|---5---5---|---5---5---|---7---7---|

|---0---0---|---3---3---|-----------|---5---5---|

|-----------|-----------|-----------|-----------|

|-----------|-----------|-----------|-----------|

|-----------|-----------|---7---7---|-----------|

|---2---2---|---5---5---|---7---7---|---8---8---|

|---2---2---|---5---5---|---5---5---|---8---8---|

|---0---0---|---3---3---|-----------|---6---6---|

Solo-

1.

Guitar1

|-----------------------------------------------------|

|-----------------------------------------------------|

|-----------------------------------------------------|

|--9-9-9-9-8-8-8-8-7-7-7-7-6-6-6-6-5-5-5-5-5-5---5-7--|

|--9-9-9-9-8-8-8-8-7-7-7-7-6-6-6-6-5-5-5-5-5-5---5-7--|

|--7-7-7-7-6-6-6-6-5-5-5-5-4-4-4-4-3-3-3-3-3-3---3-5--|

Guitar2

|-----------------------------------------------------|

|-----------------------------------------------------|

|-----------------------------------------------------|

|----9^------7^-----9^-----7^-----9^--7^--------------|

|-----------------------------------------10^--9^-----|

|-----------------------------------------------------|

2.

Guitar1

|-----------------------------------------------------|

|-----------------------------------------------------|

|-----------------------------------------------------|

|--9-9-9-9-8-8-8-8-7-7-7-7-6-6-6-6-5-5-5-5-5-5---5-7--|

|--9-9-9-9-8-8-8-8-7-7-7-7-6-6-6-6-5-5-5-5-5-5---5-7--|

|--7-7-7-7-6-6-6-6-5-5-5-5-4-4-4-4-3-3-3-3-3-3---3-5--|

Guitar2

|----------------------------------------------|

|----------------------------------------------|

|----------------------------------------------|

|----9^------7^-----11^------9^-------12^------|

|----------------------------------------------|

|----------------------------------------------|

3.

Guitar1

|-------------|--------|--------|

|-------------|--------|--------|

|--4444444----|--------|--------|

|--4444444----|--55555-|--2--4--|2x

|--2222222----|--55555-|--2--4--|

|-------------|--33333-|--0--2--|

Guitar2

|--77777777-9999--10101010-1212121212121212-141414141414-121212---|

|--xxxxxxxx-xxxx--xxxxxxxx-xxxxxxxxxxxxxxxx-xxxxxxxxxxxx-xxxxxx---|

|--44444444-6666--7-7-7-7--9-9-9-9-9-9-9-9--111111111111-9-9-9----|

|-----------------------------------------------------------------|

|-----------------------------------------------------------------|

|-----------------------------------------------------------------|

Bridge

Guitar1

|-----------|-----------|-----------|-----------|

|-----------|-----------|-----------|-----------|

|-----------|-----------|---7---7---|-----------|

|---2---2---|---5---5---|---7---7---|---8---8~--|

|---2---2---|---5---5---|---5---5---|---8---8~--|

|---0---0---|---3---3---|-----------|---6---6~--|

Guitar2

|---------x-x-x-x--|---------x-x-x-x--|----------x-x-x-x-|--------x-x-x-x--|

|---------x-x-x-x--|---------x-x-x-x--|----------x-x-x-x-|--------x-x-x-x--|

|---------x-x-x-x--|---------x-x-x-x--|---7---7--x-x-x-x-|--------x-x-x-x--|

|---2---2-x-x-x-x--|---5---5-x-x-x-x--|---7---7--x-x-x-x-|--8---8-x-x-x-x--|

|---2---2-x-x-x-x--|---5---5-x-x-x-x--|---5---5--x-x-x-x-|--8---8-x-x-x-x--|

|---0---0-x-x-x-x--|---3---3-x-x-x-x--|------------------|--6---6-x-x-x-x--|

Chorus--

Guitar1

|----------------------------|--------|--------|

|----------------------------|--------|--------|

|--4-------------------------|--------|--------|

|--4-------------------------|--5-----|--2--4--|2x

|--2-------------------------|--5-----|--2--4--|

|----------------------------|--3-----|--0--2--|

Guitar2

|--1010101010-9-9-9-9--7777--|--------|

|--1212121212-12121212-7777--|---7777-|

|----------------------------|---7777-|

|----------------------------|--------|2x

|----------------------------|--------|

|----------------------------|--------|

Guitar1 & 2

|------------|--------------|

|------------|--------------|

|------------|--------------|

|--5-555555--|--2--2--2--2--|2x

|--5-555555--|--2--2--2--2--|

|--3-333333--|--0--0--0--0--|

|--------------------X---|

|--------------------X---|

|--------------------X---|

|--5-5555555-7777-8--X---|

|--5-5555555-7777-8--X---|

|--3-3333333-5555-6--X---|

OUTRO-

GUITAR1

|--------2~----|--------2~----|

|-------3~-----|-------3~-----|

|------4~------|------4~------|

|-----4~-------|-----4~-------|

|----2~--------|----2~--------|

|--------------|--------------|

Get this song at:  amazon.com sheetmusicplus.com

Share your thoughts

0 Comments found