Paramore

Paramore - Fences guitar chord

Paramore

Fences

Riot

2007 Fueled By Rammen records

Submitted by: paramore_fans@yahoo.com

Key: D

Tuning: Standard EADGBe

Chords used:

D - xx0232

A - x02220

Bm - x24432

G - 320033

Em - 022000

F#m - 244222

F# - 244322

D/F# - 2x023x

F#/Bb - x143xx

E/G# - 476xxx

Intro: Bass lines, Bm--F#m (x2)

G|-----------------------------------------------------------------|

D|-----0-2-----0-2---2-0-----2-4-0-----0-2-----0-2---2-0---0---0---|

A|-2-4-----2-4-----------4---------2-4-----2-4-----------4---4---4-|

E|-----------------2-------2-----------------------2---------------|

Verse 1: while doing the bass

Bm

I'm sitting in a room

F#m

Made up of only big white walls and in the halls

Bm

There's people looking through

F#m

The window though they know exactly what we're here for

Em

Don't look up Just let them think

A F#m(hold)

There's no place else You'd rather be

Bm

You're always on display

F#m

For everyone to watch and learn from

Em D A

Don't you know by now You can't turn back

Em D/F# G A D F#

Because this road is all you'll ever have

Chorus:

Bm G Em F#

And it's obvious that you're dying, dy-ing

Bm G Em F#

Just living proof that the camera's ly-ing

G Em G

And open wide, 'cause this is your night

A F#(hold)

So smile, 'cause you'll go out in style

(Repeat Intro)

You'll go out in style

Verse 2:

Bm

If you let me I could

F#m

I'd show you how to build your fences

Bm

Set restrictions, separate from the world

F#m

Because the ground that you hate to fight

Em

Just blame the limelight Don't look up

A

Just let them think There's no place else

Em D A

You'd rather be and now you can't turn back

Em D/F# G A D F#

Because this road is all you'll ever have

(Repeat Chorus except last line)

F#(hold)

So smile,

Bridge:

Em G

Yeah, yeah you're asking for it

D

With every breath that you breathe in

A

Just breathe it in

Em G

Yeah, yeah well you're just a mess

D

You do all this, big talk, yeah..

A

So now let's see you walk it.

I said let's see you walk it.

Solo:

Guitar 1: Bm-F#/Bb-A-E/G#-G--F# (x2) then bass lines Bm--G-Em-F# (x2)

Guitar 2:

e|---------------------------------------------|

B|----------------------------------2~--0~--3~-|

G|-4~--2~--4~--2~--4-2-0----4~--2~-------------|

D|-----------------------4---------------------|

A|---------------------------------------------|

E|---------------------------------------------|

then this one while doing the bass lines

e|-7~---9~-10~-12~---14~--12-|

B|---------------------------|

G|---------------------------|

D|---------------------------|

A|---------------------------|

E|---------------------------|

Bass:

G|-----------0----------------|

D|-----0-2-4---4------0-------|

A|-2-4--------------2---------| (x2)

E|----------------3------0--2-|

Em G

Yeah, yeah well you're just a mess

D

You do all this, big talk, yeah..

A

So now let's see you walk it.

I said let's see you walk it.

(Repeat Chorus)

(Repeat Intro)

Get this song at:  amazon.com sheetmusicplus.com

Share your thoughts

0 Comments found