Paramore

Paramore - Emergency guitar tab

------------------------------------------------------------------------------

Emergency - Paramore

-------------------------------------------------------------------------------

Tabbed by:

---------------------Andy Gush

--------------AIM : brandnewyork20

Email:

Tuning: DROP D

INTRO

e|-----------9-----9-----9-----------------7----7----7-----------------------|

B|----7--------7-----7-----7---7------7------7----7----7---7-----------------|

G|--9---9--------9-----9-----9------9---9------9----9----9-------------------|

D|---------------------------------------------------------------------------|

A|---------------------------------------------------------------------------|

D|---------------------------------------------------------------------------|

e|---------------------------------------------------------------------------|

B|---------------------------------------------------------------------------|

G|---------------------------------------------------------------------------|

D|-9s-11-11-11-11-----11----11-----11-----11------11-s--9-9-9-9--------------|

A|-7s-9--9--9--9------9-----9------9------9-------9--s--7-7-7-7--------------|

D|-0s-0--0--0--0------0-----0------0------0-------0--s--0-0-0-0--------------|

e|---------------------------------------------------------------------------|

B|---------------------------------------------------------------------------|

G|---------------------------------------------------------------------------|

D|-9s-11-11-11-11-----11----11-----11-----11------11-s--9-9-9-9--------------|

A|-7s-9--9--9--9------9-----9------9------9-------9--s--7-7-7-7--------------|

D|-0s-0--0--0--0------0-----0------0------0-------0--s--0-0-0-0--------------|

e|-----------9-----9-----9-----------------7----7----7-----------------------|

B|----7--------7-----7-----7---7------7------7----7----7---7-----------------|

G|--9---9--------9-----9-----9------9---9------9----9----9-------------------|

D|---------------------------------------------------------------------------|

A|---------------------------------------------------------------------------|

D|---------------------------------------------------------------------------|

e|---------------------------------------------------------------------------|

B|---------------------------------------------------------------------------|

G|---------------------------------------------------------------------------|

D|-9s-11-11-11-11-----11----11-----11-----11------11-s--9-9-9-9--------------|

A|-7s-9--9--9--9------9-----9------9------9-------9--s--7-7-7-7--------------|

D|-0s-0--0--0--0------0-----0------0------0-------0--s--0-0-0-0--------------|

e|---------------------------------------------------------------------------|

B|---------------------------------------------------------------------------|

G|---------------------------------------------------------------------------|

D|-9s-11-11-11-11-----11----11-----11-----11------11-s--9-9-9-9--------------|

A|-7s-9--9--9--9------9-----9------9------9-------9--s--7-7-7-7--------------|

D|-0s-0--0--0--0------0-----0------0------0-------0--s--0-0-0-0--------------|

e|-----------9-----9-----9-----------------7----7----7-----------------------|

B|----7--------7-----7-----7---7------7------7----7----7---7-----------------|

G|--9---9--------9-----9-----9------9---9------9----9----9-------------------|

D|---------------------------------------------------------------------------|

A|---------------------------------------------------------------------------|

D|---------------------------------------------------------------------------|

e|---------------------------------------------------------------------------|

B|---------------------------------------------------------------------------|

G|---------------------------------------------------------------------------|

D|-9s-11-11-11-11-----11----11-----11-----11------11-s--9-9-9-9--------------|

A|-7s-9--9--9--9------9-----9------9------9-------9--s--7-7-7-7--------------|

D|-0s-0--0--0--0------0-----0------0------0-------0--s--0-0-0-0--------------|

e|---------------------------------------------------------------------------|

B|---------------------------------------------------------------------------|

G|---------------------------------------------------------------------------|

D|-9s-11-11-11-11-----11----11-----11-----11------11-s--9-9-9-9--------------|

A|-7s-9--9--9--9------9-----9------9------9-------9--s--7-7-7-7--------------|

D|-0s-0--0--0--0------0-----0------0------0-------0--s--0-0-0-0--------------|

e|-----------9-----9-----9-----------------7----7----7-----------------------|

B|----7--------7-----7-----7---7------7------7----7----7---7-----------------|

G|--9---9--------9-----9-----9------9---9------9----9----9-------------------|

D|---------------------------------------------------------------------------|

A|---------------------------------------------------------------------------|

D|---------------------------------------------------------------------------|

e|---------------------------------------------------------------------------|

B|---------------------------------------------------------------------------|

G|---------------------------------------------------------------------------|

D|-9s-11-11-11-11-----11----11-----11-----11------11-s--9-9-9-9--------------|

A|-7s-9--9--9--9------9-----9------9------9-------9--s--7-7-7-7--------------|

D|-0s-0--0--0--0------0-----0------0------0-------0--s--0-0-0-0--------------|

e|---------------------------------------------------------------------------|

B|---------------------------------------------------------------------------|

G|---------------------------------------------------------------------------|

D|-9s-11-11-11-11-----11----11-----11-----11------11-s--9-9-9-9--------------|

A|-7s-9--9--9--9------9-----9------9------9-------9--s--7-7-7-7--------------|

D|-0s-0--0--0--0------0-----0------0------0-------0--s--0-0-0-0--------------|

" its really not your fault....when no cares to talk about it"

e|--9------------------------------------------------------------------------|

B|----7----alot--------------------------------------------------------------|

G|------9--------------------------------------------------------------------|

D|---------------------------------------------------------------------------|

A|---------------------------------------------------------------------------|

D|---------------------------------------------------------------------------|

e|---------------------------------------------------------------------------|

B|---------------------------------------------------------------------------|

G|--4-4-4-4-----6-6-6-6------------------------------------------------------|

D|-----------s---------------------------------------------------------------|

A|--2-2-2-2--s--4-4-4-4------------------------------------------------------|

D|--0-0-0-0--s--0-0-0-0------------------------------------------------------|

Chorus

e|---------------------------------------------------------------------------|

B|---------------------------------------------------------------------------|

G|---------------------------------------------------------------------------|

D|-9--9---9-9-9---0--0-0--0-0-0-0---4--4---4-4-4-4---7--7---7-7-7-7----------|

A|-9--9---9-9-9---0--0-0--0-0-0-0---4--4---4-4-4-4---7--7---7-7-7-7-pause----|

D|-9--9---9-9-9---0--0-0--0-0-0-0---4--4---4-4-4-4---7--7---7-7-7-7----------|

e|---------------------------------------------------------------------------|

B|---------------------------------------------------------------------------|

G|---------------------------------------------------------------------------|

D|-9--9---9-9-9---0--0-0--0-0-0-0---4--4---4-4-4-4---7--7---7-7-7-7----------|

A|-9--9---9-9-9---0--0-0--0-0-0-0---4--4---4-4-4-4---7--7---7-7-7-7----------|

D|-9--9---9-9-9---0--0-0--0-0-0-0---4--4---4-4-4-4---7--7---7-7-7-7----------|

e|---------------------------------------------------------------------------|

B|---------------------------------------------------------------------------|

G|---------------------------------------------------------------------------|

D|-9--9---9-9-9---0--0-0--0-0-0-0---4--4---4-4-4-4---7--7---7-7-7-7----------|

A|-9--9---9-9-9---0--0-0--0-0-0-0---4--4---4-4-4-4---7--7---7-7-7-7-pause----|

D|-9--9---9-9-9---0--0-0--0-0-0-0---4--4---4-4-4-4---7--7---7-7-7-7----------|

e|---------------------------------------------------------------------------|

B|---------------------------------------------------------------------------|

G|---------------------------------------------------------------------------|

D|-9--9---9-9-9---0--0-0--0-0-0-0---4--4---4-4-4-4---7--7---7-7-7-7----------|

A|-9--9---9-9-9---0--0-0--0-0-0-0---4--4---4-4-4-4---7--7---7-7-7-7----------|

D|-9--9---9-9-9---0--0-0--0-0-0-0---4--4---4-4-4-4---7--7---7-7-7-7----------|

e|-----------9-----9-----9-----------------7----7----7-----------------------|

B|----7--------7-----7-----7---7------7------7----7----7---7-----------------|

G|--9---9--------9-----9-----9------9---9------9----9----9-------------------|

D|---------------------------------------------------------------------------|

A|---------------------------------------------------------------------------|

D|---------------------------------------------------------------------------|

e|---------------------------------------------------------------------------|

B|---------------------------------------------------------------------------|

G|---------------------------------------------------------------------------|

D|-9s-11-11-11-11-----11----11-----11-----11------11-s--9-9-9-9--------------|

A|-7s-9--9--9--9------9-----9------9------9-------9--s--7-7-7-7--------------|

D|-0s-0--0--0--0------0-----0------0------0-------0--s--0-0-0-0--------------|

e|---------------------------------------------------------------------------|

B|---------------------------------------------------------------------------|

G|---------------------------------------------------------------------------|

D|-9s-11-11-11-11-----11----11-----11-----11------11-s--9-9-9-9--------------|

A|-7s-9--9--9--9------9-----9------9------9-------9--s--7-7-7-7--------------|

D|-0s-0--0--0--0------0-----0------0------0-------0--s--0-0-0-0--------------|

e|-----------9-----9-----9-----------------7----7----7-----------------------|

B|----7--------7-----7-----7---7------7------7----7----7---7-----------------|

G|--9---9--------9-----9-----9------9---9------9----9----9-------------------|

D|---------------------------------------------------------------------------|

A|---------------------------------------------------------------------------|

D|---------------------------------------------------------------------------|

e|---------------------------------------------------------------------------|

B|---------------------------------------------------------------------------|

G|---------------------------------------------------------------------------|

D|-9s-11-11-11-11-----11----11-----11-----11------11-s--9-9-9-9--------------|

A|-7s-9--9--9--9------9-----9------9------9-------9--s--7-7-7-7--------------|

D|-0s-0--0--0--0------0-----0------0------0-------0--s--0-0-0-0--------------|

e|---------------------------------------------------------------------------|

B|---------------------------------------------------------------------------|

G|---------------------------------------------------------------------------|

D|-9s-11-11-11-11-----11----11-----11-----11------11-s--9-9-9-9--------------|

A|-7s-9--9--9--9------9-----9------9------9-------9--s--7-7-7-7--------------|

D|-0s-0--0--0--0------0-----0------0------0-------0--s--0-0-0-0--------------|

e|-----------9-----9-----9-----------------7----7----7-----------------------|

B|----7--------7-----7-----7---7------7------7----7----7---7-----------------|

G|--9---9--------9-----9-----9------9---9------9----9----9-------------------|

D|---------------------------------------------------------------------------|

A|---------------------------------------------------------------------------|

D|---------------------------------------------------------------------------|

e|---------------------------------------------------------------------------|

B|---------------------------------------------------------------------------|

G|---------------------------------------------------------------------------|

D|-9s-11-11-11-11-----11----11-----11-----11------11-s--9-9-9-9--------------|

A|-7s-9--9--9--9------9-----9------9------9-------9--s--7-7-7-7--------------|

D|-0s-0--0--0--0------0-----0------0------0-------0--s--0-0-0-0--------------|

e|---------------------------------------------------------------------------|

B|---------------------------------------------------------------------------|

G|---------------------------------------------------------------------------|

D|-9s-11-11-11-11-----11----11-----11-----11------11-s--9-9-9-9--------------|

A|-7s-9--9--9--9------9-----9------9------9-------9--s--7-7-7-7--------------|

D|-0s-0--0--0--0------0-----0------0------0-------0--s--0-0-0-0--------------|

" its really not your fault....when no cares to talk about it"

e|--9------------------------------------------------------------------------|

B|----7----alot--------------------------------------------------------------|

G|------9--------------------------------------------------------------------|

D|---------------------------------------------------------------------------|

A|---------------------------------------------------------------------------|

D|---------------------------------------------------------------------------|

e|---------------------------------------------------------------------------|

B|---------------------------------------------------------------------------|

G|--4-4-4-4-----6-6-6-6------------------------------------------------------|

D|-----------s---------------------------------------------------------------|

A|--2-2-2-2--s--4-4-4-4------------------------------------------------------|

D|--0-0-0-0--s--0-0-0-0------------------------------------------------------|

e|---------------------------------------------------------------------------|

B|---------------------------------------------------------------------------|

G|---------------------------------------------------------------------------|

D|-9--9---9-9-9---0--0-0--0-0-0-0---4--4---4-4-4-4---7--7---7-7-7-7----------|

A|-9--9---9-9-9---0--0-0--0-0-0-0---4--4---4-4-4-4---7--7---7-7-7-7-pause----|

D|-9--9---9-9-9---0--0-0--0-0-0-0---4--4---4-4-4-4---7--7---7-7-7-7----------|

e|---------------------------------------------------------------------------|

B|---------------------------------------------------------------------------|

G|---------------------------------------------------------------------------|

D|-9--9---9-9-9---0--0-0--0-0-0-0---4--4---4-4-4-4---7--7---7-7-7-7----------|

A|-9--9---9-9-9---0--0-0--0-0-0-0---4--4---4-4-4-4---7--7---7-7-7-7----------|

D|-9--9---9-9-9---0--0-0--0-0-0-0---4--4---4-4-4-4---7--7---7-7-7-7----------|

e|---------------------------------------------------------------------------|

B|---------------------------------------------------------------------------|

G|---------------------------------------------------------------------------|

D|-9--9---9-9-9---0--0-0--0-0-0-0---4--4---4-4-4-4---7--7---7-7-7-7----------|

A|-9--9---9-9-9---0--0-0--0-0-0-0---4--4---4-4-4-4---7--7---7-7-7-7-pause----|

D|-9--9---9-9-9---0--0-0--0-0-0-0---4--4---4-4-4-4---7--7---7-7-7-7----------|

e|---------------------------------------------------------------------------|

B|---------------------------------------------------------------------------|

G|---------------------------------------------------------------------------|

D|-9--9---9-9-9---0--0-0--0-0-0-0---4--4---4-4-4-4---7--7---7-7-7-7----------|

A|-9--9---9-9-9---0--0-0--0-0-0-0---4--4---4-4-4-4---7--7---7-7-7-7----------|

D|-9--9---9-9-9---0--0-0--0-0-0-0---4--4---4-4-4-4---7--7---7-7-7-7----------|

e|-----------9-----9-----9-----------------7----7----7-----------------------|

B|----7--------7-----7-----7---7------7------7----7----7---7-----------------|

G|--9---9--------9-----9-----9------9---9------9----9----9-------------------|

D|---------------------------------------------------------------------------|

A|---------------------------------------------------------------------------|

D|---------------------------------------------------------------------------|

e|--9-----------------------------------------------------------------------|

B|----7----alot-very soft---------------------------------------------------|

G|------9-------------------------------------------------------------------|

D|--------------------------------------------------------------------------|

A|--------------------------------------------------------------------------|

D|--------------------------------------------------------------------------|

SOLO

e|------------------------------------------------9--------------9-----------|

B|-----------9-10-9-------------9-10-9--------12-----12------12-----12-------|

G|---------9--------9---------9--------9------------------9-------------9----|

D|----7s9----------------7s9---------------9---------------------------------|

A|---------------------------------------------------------------------------|

D|---------------------------------------------------------------------------|

e|----------------------------9--12--------17-16----------17-16--------------|

B|----------9-10-9--------------------------------17--14---------17----------|

G|--------9--------9------12---------9-------------------------------14------|

D|----7s9--------------9-----------------------------------------------------|

A|---------------------------------------------------------------------------|

D|---------------------------------------------------------------------------|

e|--9------------------------------------------------------------------------|

B|----7----alot-very soft--------------------------------------------------|

G|------9--------------------------------------------------------------------|

D|---------------------------------------------------------------------------|

A|---------------------------------------------------------------------------|

D|---------------------------------------------------------------------------|

e|-----------9-----9-----9-----------------7----7----7-----------------------|

B|----7--------7-----7-----7---7------7------7----7----7---7-----------------|

G|--9---9--------9-----9-----9------9---9------9----9----9-------------------|

D|---------------------------------------------------------------------------|

A|---------------------------------------------------------------------------|

D|---------------------------------------------------------------------------|

e|---------------------------------------------------------------------------|

B|---------------------------------------------------------------------------|

G|---------------------------------------------------------------------------|

D|-9--9---9-9-9---0--0-0--0-0-0-0---4--4---4-4-4-4---7--7---7-7-7-7----------|

A|-9--9---9-9-9---0--0-0--0-0-0-0---4--4---4-4-4-4---7--7---7-7-7-7-pause----|

D|-9--9---9-9-9---0--0-0--0-0-0-0---4--4---4-4-4-4---7--7---7-7-7-7----------|

e|---------------------------------------------------------------------------|

B|---------------------------------------------------------------------------|

G|---------------------------------------------------------------------------|

D|-9--9---9-9-9---0--0-0--0-0-0-0---4--4---4-4-4-4---7--7---7-7-7-7----------|

A|-9--9---9-9-9---0--0-0--0-0-0-0---4--4---4-4-4-4---7--7---7-7-7-7----------|

D|-9--9---9-9-9---0--0-0--0-0-0-0---4--4---4-4-4-4---7--7---7-7-7-7----------|

e|---------------------------------------------------------------------------|

B|---------------------------------------------------------------------------|

G|---------------------------------------------------------------------------|

D|-9--9---9-9-9---0--0-0--0-0-0-0---4--4---4-4-4-4---7--7---7-7-7-7----------|

A|-9--9---9-9-9---0--0-0--0-0-0-0---4--4---4-4-4-4---7--7---7-7-7-7-pause----|

D|-9--9---9-9-9---0--0-0--0-0-0-0---4--4---4-4-4-4---7--7---7-7-7-7----------|

e|---------------------------------------------------------------------------|

B|---------------------------------------------------------------------------|

G|---------------------------------------------------------------------------|

D|-9--9---9-9-9---0--0-0--0-0-0-0---4--4---4-4-4-4---7--7---7-7-7-7----------|

A|-9--9---9-9-9---0--0-0--0-0-0-0---4--4---4-4-4-4---7--7---7-7-7-7----------|

D|-9--9---9-9-9---0--0-0--0-0-0-0---4--4---4-4-4-4---7--7---7-7-7-7----------|

e|-----------9-----9-----9-----------------7----7----7-----------------------|

B|----7--------7-----7-----7---7------7------7----7----7---7-----------------|

G|--9---9--------9-----9-----9------9---9------9----9----9-------------------|

D|---------------------------------------------------------------------------|

A|---------------------------------------------------------------------------|

D|---------------------------------------------------------------------------|

| / slide up

| \\ slide down

| h hammer-on

| p pull-off

| ~ vibrato

| + harmonic

| x Mute note

=================================================================Added by tabs-database.com and our distinguished partners

Get this song at:  amazon.com sheetmusicplus.com

Share your thoughts

0 Comments found