Paramore

Paramore - Emergency Bass guitar tab

Emergency by Paramore.

I'm sure this is correct. :)

Tuning: Drop D

Intro/verse

G|---------------------------------------------------|

D|---------------------------------------------------|

A|---------------------------------------------------| x5

D|-0-0-0-0-0-0-0-0-244-4-4-4-4-4-222244-4-4-4-4-2222-|

Pre-Chorus:

it's really not your fault...

G|-------------------------------------------|

D|----6p7h6----------2h4---------------------|

A|----------7----2h4---------------2222-4444-|

D|-22---------44---------00~-0-00~-----------|

Chorus:

G|-------------------------------------------------------|

D|-------------------------------------------------------|

A|--2222--------------------------2222-------------------|

D|-------0-0-0-0-0-0-4444-777-7-7------0-0-0-0-4444-2222-| x2

Intro/Verse not sure how many times it repeats.

G|----------------------------------------------------|

D|----------------------------------------------------|

A|----------------------------------------------------|

D|-0-0-0-0-0-0-0-0-2h44-4-4-4-4-4-222244-4-4-4-4-2222-|

Back to Pre-Chorus

Then to Chorus.

Breakdown. really fast sliding. this part is hard.

G|----------------------------------------------| |-------------------|

D|----------------------------------------------| |-------------------|

A|------------------------------------------4---|x2 |------4-555-----555-|x2

D|-0-0-0-0-0-0-0-0-222-22h4/6-2-444-444/6h7---7-| |--000-------0-------|

Solo. I wasn't paying attention here so follow your ears.

G|--------------------------------------------------|

D|--------------------------------------------------|

A|-----------------4h55----555----4h55---55---------|

D|-222222-444444-00-----00-----00------0----222-444-|

Back to Chorus and end with the intro.

enjoy. ahh tabbing gets easier everytime I do it! Eh.

myspace.com/23336606

e-mail: webmaster at tabs-database.com.com

End the last chorus with this:

G|-----------------------|

D|-----------------------|

A|-----------------------|

D|-------0-0-0-0-0-0-0-4~|

Added by tabs-database.com and our distinguished partners

Get this song at:  amazon.com sheetmusicplus.com

Share your thoughts

0 Comments found