Paramore

Paramore - Crushcrushcrush guitar tab

Song - Crushcrushcrush

Tuning - Half Step Down

I decided to tab this because of the large amount of the same tab that was wrong and

actually pretty fun to play

Verse

eb|----------------------------------------------------------------------|

Bb|----------------------------------------------------------------------|

Gb|--7-7-7----7-7-7-7-7-7-7-7-------------------5-5-5-5-5-5-5-5----------|

Db|--7-7-7----7-7-7-7-7-7-7-7--3-3-3-3-3-3-3-3--5-5-5-5-5-5-5-5----------|

Ab|--5-5-5----5-5-5-5-5-5-5-5--3-3-3-3-3-3-3-3--3-3-3-3-3-3-3-3----------|

Db|----------------------------3-3-3-3-3-3-3-3---------------------------|

P.M . . . . . . . . . . . . . . . . . . . . . . . .

eb|------------------------------------------------------------------------|

Bb|------------------------------------------------------------------------|

Gb|--7-7-7-7-7-7-7-7------------------------------------7------------------|

Db|--7-7-7-7-7-7-7-7--7-7-7-7-7-7-7-7--3-3-3-3-3-3-3-3--7-x16--------------|

Ab|--5-5-5-5-5-5-5-5--5-5-5-5-5-5-5-5--3-3-3-3-3-3-3-3--5------------------|

Db|------------------------------------3-3-3-3-3-3-3-3---------------------|

P.M . . . . . . . . . . . . . . . . . . . . . . . . .

Bridge (possibly inaccurate but sounds good

eb|-1------3------5--------------------------------------------------------|

Bb|-1------3------5--------------------------------------------------------|

Gb|-3------5------7--------3-3--3-3-3-3--2-2-2--2-2------------------------|

Db|-3------5------7--------3-3--3-3-3-3--2-2-2--2-2------------------------|

Ab|-1------3------5--------1-1--1-1-1-1--0-0-0--0-0------------------------|

Db|------------------------------------------------------------------------|

P.M . . . . . . . . . . .

Intro to Chorus

eb|------------------------------------------------------------------------|

Bb|------------------------------------------------------------------------|

Gb|------------------------------------------------------------------------|

Db|-0---------0------------------------------------------------------------|

Ab|-0---------0------------------------------------------------------------|

Db|-0---------0------------------------------------------------------------|

Chorus

eb|----------------------------------|-------End with----------------------|

Bb|----------------------------------|-------------------------------------|

Gb|-----------5---3-3------5---------|--3-3-3-3-3-3-3-3--5-5-5-5-5---------|

Db|-0-0--3-3--5---3-3--0-0-5----x2---|--3-3-3-3-3-3-3-3--5-5-5-5-5---------|

Ab|-0-0--3-3--3---1-1--0-0-3---------|--1-1-1-1-1-1-1-1--3-3-3-3-3---------|

Db|-0-0--3-3-----------0-0-----------|-------------------------------------|

Intro to verse 2

Guitar 1

eb|-------------------------------------------------------------------------|

Bb|-------------------------------------------------------------------------|

Gb|-------------------------------------------------------------------------|

Db|-0--0--0--0--3--3--3--3--0--0--0--0--3--3--3--3--------------------------|

Ab|-0--0--0--0--3--3--3--3--0--0--0--0--3--3--3--3--------------------------|

Db|-0--0--0--0--3--3--3--3--0--0--0--0--3--3--3--3--------------------------|

Verse 2

eb|-------------------------------------------------------------------------|

Bb|-------------------------------------------------------------------------|

Gb|------7-7-7-7-7-7-7-7-------------------5-5-5-5-5-5-5-5------------------|

Db|------7-7-7-7-7-7-7-7--3-3-3-3-3-3-3-3--5-5-5-5-5-5-5-5------------------|

Ab|------5-5-5-5-5-5-5-5--3-3-3-3-3-3-3-3--3-3-3-3-3-3-3-3------------------|

Db|-----------------------3-3-3-3-3-3-3-3-----------------------------------|

P.M . . . . . . . . . . . . . . . . . . . . . . . .

eb|------------------------------------------------------------------------|

Bb|------------------------------------------------------------------------|

Gb|--7-7-7-7-7-7-7-7------------------------------------7------------------|

Db|--7-7-7-7-7-7-7-7--7-7-7-7-7-7-7-7--3-3-3-3-3-3-3-3--7-x16--------------|

Ab|--5-5-5-5-5-5-5-5--5-5-5-5-5-5-5-5--3-3-3-3-3-3-3-3--5------------------|

Db|------------------------------------3-3-3-3-3-3-3-3---------------------|

P.M . . . . . . . . . . . . . . . . . . . . . . . . .

Intro to Chorus 2

eb|------------------------------------------------------------------------|

Bb|------------------------------------------------------------------------|

Gb|------------------------------------------------------------------------|

Db|-0---------0------------------------------------------------------------|

Ab|-0---------0------------------------------------------------------------|

Db|-0---------0------------------------------------------------------------|

Chorus 2

eb|----------------------------------|-------End with----------------------|

Bb|----------------------------------|-------------------------------------|

Gb|-----------5---3-3------5---------|--3-3-3-3-3-3-3-3--5-5-5-5-5---------|

Db|-0-0--3-3--5---3-3--0-0-5----x2---|--3-3-3-3-3-3-3-3--5-5-5-5-5---------|

Ab|-0-0--3-3--3---1-1--0-0-3---------|--1-1-1-1-1-1-1-1--3-3-3-3-3---------|

Db|-0-0--3-3-----------0-0-----------|-------------------------------------|

Break Down

Guitar 1

eb|

Bb|-------------------------------------------------------------------------|

Gb|---------------5---3-3-3-------------------------------------------------|

Db|-0------3------5---3-3-3----x8-------------------------------------------|

Ab|-0------3------3---1-1-1-------------------------------------------------|

Db|-0------3----------------------------------------------------------------|

Guitar 2 (Comes in after 4th run through of guitar 1)

eb|-13-13-13-13-12-12-12-12-10-10-10-10-10-10-10-10------------------------|

Bb|------------------------------------------------------------------------|

Gb|------------------------------------------------------------------------|

Db|--------------------------------------------------x4--------------------|

Ab|------------------------------------------------------------------------|

Db|------------------------------------------------------------------------|

Chorus 3

eb|-------------------------------------------------------------------------|

Bb|-------------------------------------------------------------------------|

Gb|-----------5-----3---------5----6----------------------------------------|

Db|-0----3----5-x8--3-x4-0----5-x5-6----------------------------------------|

Ab|-0-x4-3-x4-3-----1----0-x4-3----4----------------------------------------|

Eb|-0----3---------------0--------------------------------------------------|

Play this part 2 times

eb|----------------------------------|-------End with----------------------|

Bb|----------------------------------|-------------------------------------|

Gb|-----------5---3-3------5---------|--3-3-3-3-3-3-3-3--5-5-5-5-5---------|

Db|-0-0--3-3--5---3-3--0-0-5----x2---|--3-3-3-3-3-3-3-3--5-5-5-5-5---------|

Ab|-0-0--3-3--3---1-1--0-0-3---------|--1-1-1-1-1-1-1-1--3-3-3-3-3---------|

Db|-0-0--3-3-----------0-0-----------|-------------------------------------|

Outro

Guitar 1

eb|-------------------------------------------------------------------------|

Bb|-------------------------------------------------------------------------|

Gb|--------------------------------5-----6-----7/---------------------------|

Db|-0-----6-----5-----4------0-----5-x4--6-x4--7/---------------------------|

Ab|-0-x8--6-x8--5-x8--4-x8---0-x8--3-----4-----5/---------------------------|

Db|-0-----4-----3-----2------0----------------------------------------------|Added by tabs-database.com and our distinguished partners

Get this song at:  amazon.com sheetmusicplus.com

Share your thoughts

0 Comments found