Paramore

Paramore - Crushcrushcrush guitar chord

Paramore

CrushCrushCrush

Riot

2007 Fueled By Rammen Records

Submitted by: paramore_fans@yahoo.com

Key: E

Tuning: Standard EADGBe

Chords used:

C#m - x46654

E - 022100

B - x24442

A - x02220

G#/C - x365xx

G#m - 466444

F#/Bb - x143xx

Intro: G#/C

Verse 1:

C#m E

I got a lot to say to you

B C#m

Yeah, I got a lot to say

C#m E

I noticed your eyes are always glued to me

B

Keeping them here And it makes no sense at all

Refrain:

A B

They taped over your mouth

C#m

Scribbled out the truth with their lies

You little spies

(Repeat)

Interlude: A--G#m-G#/C

Guitar 2:

e|-11-12-11--------12--11-|

B|----------12------------|

G|-------------11---------|

D|------------------------|

A|------------------------|

E|------------------------|

C#m(hold)

Crush Crush Crush

Crush, crush

(Two, three, four!)

Chorus 1:

C#m E B

Nothing compares to a quiet evening alone

A C#m B

Just the one two of us who's counting on

C#m E B

That never happens I guess I'm dreaming again

A B(hold)

Let's be more than this

Interlude: C#m--B (x2) G#/C

Guitar 2:

e|-4-5-4-2-0-----------------|-4-5-4-2-0------------9-|

B|-----------4-5-4-2-0--0--0-|-----------4-5-4-2-0----|

G|---------------------------|------------------------|

D|---------------------------|------------------------|

A|---------------------------|------------------------|

E|---------------------------|------------------------|

Verse 2:

C#m E

If you want to play it like a game

B C#m

Well, come on, come on, let's play

C#m E

Cause I'd rather waste my life pretending

B

Than have to forget you for one whole minute

(Repeat Refrain and Chorus 1)

Interlude: C#m-E-B (x2)

Bridge:

C#m E B

Rock and roll, baby

C#m E B

Don't you know that we're all alone now?

I need something to sing about

(Repeat 4x)

Chorus 2:

C#m E B

Nothing compares to a quiet evening alone

A C#m B G#/C

Just the one two of us who's counting on

C#m E B

That never happens I guess I'm dreaming again

A B

Let's be more than this

(Repeat Chorus 1)

Outro: C#m--G#/C--B--F#/Bb--A--B-G#/C-C#m(hold)

Guitar 2:

e|-12--11--12-11-9--11-12--11--12-9------5-4---------11-12-11-12-14-12-11-12-21-|

B|-----------------------------------5-5---------5-4----------------------------|

G|---------------------------------------------4--------------------------------|

D|-------------------------------------------2----------------------------------|

A|------------------------------------------------------------------------------|

E|------------------------------------------------------------------------------|

Get this song at:  amazon.com sheetmusicplus.com

Share your thoughts

0 Comments found