Paramore

Paramore - Conspiracy Bass guitar tab

---------------------------------------|

Conspiracy - Paramore--|

Tabbed By :Dvanwyk

e-mail: webmaster at tabs-database.com.com

Please rate this tab thanx!

Tuning:Drop D

Intro

G|----------------------------------|

D|----------------------------------|

A|----------------------------------|

D|8~-8\\10-0~--35---8~-8\\10--0-0-0~--|

G|----------------------------------------------------------------------------------|

D|----------------------------------------------------------------------------------|

A|----------------------------------------------------------------------------------|

D|88888-8-88-88-8--88888-8-88-88-10\\3333-33-00000-----------------------------------|

Verse x4

G|-----------------------------------------------------------------------------|

D|-----------------------------------------------------------------------------|

A|---------------8----------------3--------------------------------------------|

D|8888-8-88-8h10----0000-0-00-3h5----------------------------------------------|

Chorus

G|-------------------------------------------------------|

D|-------------------------------------------------------|

A|----------------------------------------------------3--|

D|88888-8-88-88-8--88888-8-88-88-10\\3333-33-00000-1\\3----|

Verse x4

G|-----------------------------------------------------------------------------|

D|-----------------------------------------------------------------------------|

A|---------------8----------------3--------------------------------------------|

D|8888-8-88-8h10----0000-0-00-3h5----------------------------------------------|

Chorus

G|-------------------------------------------------------|

D|-------------------------------------------------------|

A|----------------------------------------------------3--|

D|88888-8-88-88-8--88888-8-88-88-10\\3333-33-00000-1\\3----|

Bridge x4

G|-----------------------------------------------------------------------------|

D|-----------------------------------------------------------------------------|

A|-----------------------------------------------------------------------------|

D|5555555555555555888888888888888800000000000000008888888888888888-------------|

G|---------------------------------------------------------------------------|

D|---------------------------------------------------------------------------|

A|---------------------------------------------------------------------------|

D|---------------------------------------------------------------------------|

Chorus x2

G|-------------------------------------------------------|

D|-------------------------------------------------------|

A|----------------------------------------------------3--|

D|88888-8-88-88-8--88888-8-88-88-10\\3333-33-00000-1\\3----|

Outro

G|----------------------------------|

D|----------------------------------|

A|----------------------------------|

E|8~-8\\10-0~--35---8~-8\\10--0-0-0~--|

| / slide up

| \\ slide down

| h hammer-on

| p pull-off

| ~ vibrato

| + harmonic

| x Mute note

===============================================================================Added by tabs-database.com and our distinguished partners

Get this song at:  amazon.com sheetmusicplus.com

Share your thoughts

0 Comments found