Paramore

Paramore - Circle guitar tab

Song:Circle

Artist:Paramore

Date Tabbed:January,2007

Guitar Tabber:Ryan Manongdo/16/m/Montalban Rizal,Philippines

no_falter0x@yahoo.com(MySpace,Friendster&YM)

Gtr.Legends:

. - palm muting

~ - let it ring

Gtr.Tuning:Standard(Normal)

Intro,Verse

Gtr.1

e|-88--66-----------|

B|-88--66--66--88---|

G|---------66--66---|

D|------------------|

A|------------------|

E|------------------|

.. .. .. ..

Gtr.2:

e|------------------|

B|------------------|

G|-88888888888888---| Gtr.2 will going to enter when the verse starts to play!!

D|-66666666666666---|

A|------------------|

E|------------------|

Pre-Chorus:And I think...

Gtr.1

e|-----------------|

B|-----------------|

G|-----------------| 4x

D|-3333-555-6666---|

A|-3333-555-6666---|

E|-1111-333-4444---|

.... ... ....

Gtr.2 Enters

e|----------------------------------------------------|

B|--------------------15-13----------------------15---|

G|-10101010-8888-1313---------10101010-8888-1313------|

D|----------------------------------------------------|

A|----------------------------------------------------|

E|----------------------------------------------------|

Chorus:This circle never...

e|---------------------|

B|---------------------|

G|-66-666-66-666-------|

D|-66-666-66-666--2~---|

A|-44-444-44-444--3~---|

E|----------------1~---|

.. ... .. ...

Pre-Verse 2:

e|-----------|

B|-----------|

G|-----------|

D|-8~---8~---|

A|-6~---6~---|

E|-----------|

Verse 2:Take this time...

Repeat Pre-Chorus:

Repeat Chorus:

Pre-Bridge:

Gtr.1

e|-----------|

B|-----------|

G|-----------|

D|-8~---8~---|

A|-6~---6~---|

E|-----------|

Gtr.2

e|------11------11-----11------11---|

B|-1010----1010----1010---1010------|

G|----------------------------------|

D|----------------------------------|

A|----------------------------------|

E|----------------------------------|

Gtr.2

e|----11-15-11-----15-11--------------------------|

B|-10----------13--------11--13-------13----------|

G|------------------------------15-------15-------| 3x

D|---------------------------------13-------13----|

A|------------------------------------------------|

E|------------------------------------------------|

Gtr.1 Enters:

e|---------------------|

B|---------------------|

G|-8~---6~--6-666666---|

D|-8~---6~--6-666666---|

A|-6~---4~--4-444444---|

E|---------------------|

Repeat Chorus:

Outro:

Play Pre-Chorus

Last Chord:F(Let it ring~~)

End...

Get this song at:  amazon.com sheetmusicplus.com

Share your thoughts

0 Comments found