Paramore

Paramore - Brighter guitar tab

There are some changes that i thought were somewhat appropriate for the chorus and a few

things. Hope you like it.

e------------------------------------------------|

B------------------------------------------------|

G------------------------------------------------|

D------------------------------------------------|

A------------------------------------------------|

E------------------------------------------------|

Intro

Guitar A

(Intro and Chorus)

e------------------------------------------------|

B-----------9-9--------9-9-----------------------|

G-----------9-9--------9-9---6h7p6h7-------------| x4

D-----6h7--------6h7-----------------------------|

A------------------------------------------------|

E------------------------------------------------|

e------5---7---9------------5-5-4----------------|

B--2-3---3---3---5-------------------------------|

G------------------------------------------------| x1

D------------------------------------------------|

A------------------------------------------------|

E------------------------------------------------|

Guitar 1

This part comes in when Guitar A starts playing the riff the third time.

(Intro and Chorus)

e-----------------------------------------------------------|

B-----------------------------------------------------------|

G---------------------------7-------------------------------|

D-------7---------4---------7--x16---7-7--x---6-------------|

A-------7--x16----4--x16----5--------7-7--x---6-------------|

E-------5---------2------------------5-5--x---4-------------|

Guitar 1

Verse

e-------------------------------------------------|

B-------------------------------------------------|

G-------------------------------------------------| \\

D---------15-----------------15-------------------| \\

A---11-12-----14-11----11-12----14-11-------------| \\

E-------------------------------------------------| \\

\\

x 4

e------------------------------------------------------| /

B---------------12--------12---------------------------| /

G------------15----15--------15------------------------| /

D---11-12-11----------14--------14---------------------| /

A------------------------------------------------------| /

E------------------------------------------------------|

Chorus

Guitar A

e------------------------------------------------|

B-----------9-9--------9-9-----------------------|

G-----------9-9--------9-9---6h7p6h7-------------| x4

D-----6h7--------6h7-----------------------------|

A------------------------------------------------|

E------------------------------------------------|

e------5---7---9------------5-5-4----------------|

B--2-3---3---3---5-------------------------------|

G------------------------------------------------| x1

D------------------------------------------------|

A------------------------------------------------|

E------------------------------------------------|

Play this twice

Guitar 1

e-----------------------------------------------------------|

B-----------------------------------------------------------|

G---------------------------7-------------------------------|

D-------7---------4---------7--x16---7-7--x---6-------------|

A-------7--x16----4--x16----5--------7-7--x---6-------------|

E-------5---------2------------------5-5--x---4-------------|

Play this twice

Verse

Chorus

Solo

e---------------17-------------------------------|

B---14---------------14--------------------------|

G------14-13-14---------14-13-14-11-9------------|

D------------------------------------------------|

A------------------------------------------------|

E------------------------------------------------|

e---------------17-------------------------------|

B---14-------------------------------------------|

G------14-13-14----------------------------------|

D------------------------------------------------|

A------------------------------------------------|

E------------------------------------------------|

Ok there are two ways to play the end of the solo

The way josh plays it live:

e--17-17-17-16-16-16-14-14-14--------------------|

B------------------------------14-15-14----------|

G------------------------------------------------|

D------------------------------------------------|

A------------------------------------------------|

E------------------------------------------------|

OR the way it is in the album

e--17-16-14---------------------------------------|

B-----------14-15-17------------------------------|

G-------------------------------------------------|

D-------------------------------------------------|

A-------------------------------------------------|

E-------------------------------------------------|

After the first solo, play THIS:

e------------------------------------------------|

B------------------------------------------------|

G----------------------7-------9-----------------|

D--4---------2---------7--x12--9-x3--------------|

A--4--x16----2--x16----5-------7-----------------|

E--2---------0-----------------------------------|

e------------------------------------------------|

B------------------------------------------------|

G----------------------7-------------------------|

D--4-----------2-------7-(let ring)--------------|

A--4-x16(?)----2--x3---5-------------------------|

E--2-----------0---------------------------------|

e------------------------------------------------|

B------------------------------------------------|

G------------------------------------------------|

D---------15-----------------15------------------|

A---11-12-----14-11----11-12----14-11------------|

E------------------------------------------------|

e------------------------------------------------|

B---------------12--------12---------------------|

G------------15----15--------15------------------|

D---11-12-11----------14--------14---------------|

A------------------------------------------------|

E------------------------------------------------|

e-------------------------------------------------|

B-------------------------------------------------|

G-------------------------------------------------|

D---------15-----------------15-------------------|

A---11-12-----14-11----11-12----14-11---12--------|(let ring)

E-------------------------------------------------|

Chorus

Solo

e--------12--------------------------------------|

B---9-10------x(many times)----------------------|

G------------------------------------------------|

D------------------------------------------------|

A------------------------------------------------|

E------------------------------------------------|

Well that's it. Please rate.Added by tabs-database.com and our distinguished partners

Get this song at:  amazon.com sheetmusicplus.com

Share your thoughts

0 Comments found