Paramore

Paramore - Brighter Bass guitar tab

This is correct, I am sure of it. Just some parts I'm missing a few notes.

If you feel the need to correct me or discuss about a certain tab, contact me via

www.myspace/23336606 e-mail: webmaster at tabs-database.com.com to add me.

tabbed by Valerie, short and asian.

Intro/Chorus:

G|-------------------------------------------|

D|-------------------------------------2-----|

A|-----------------------------------2-------|

D|-7(x16)-9999-4(x16)-0(x16)-2~--4-2---------|

Verse: So this is how it goes...

G|---------------------------------------------------------------------------|

D|-444-222-----------444-222-----------444-222------------444-666------------|

A|---------555-5h------------555-5h------------555-5h------------------------|

E|----------------70----------------70----------------70----------0000000000-|

Chorus:

G|----------------------------------------|

D|-------------------------------------2--|

A|-----------------------------------2----|

D|-7(x16)-9999-4(x16)-0(x16)-2~--4-2------|

Back to verse

During guitar solo (2:04)

G|---------------------|

D|---------------------|

A|---------------------|

D|-444-222-000-00020---|x2

If you run away now...

G|------------------------------------------------------------|

D|-----------------------------------------4~--2~2----4~-6----|

A|-------------------------------------------------5~---------|

D|-4(x8)-2(x8)-0(x10)-20-44444444-66666-0~------------------0-|

Back to Chorus and finish!

Yay.Added by tabs-database.com and our distinguished partners

Get this song at:  amazon.com sheetmusicplus.com

Share your thoughts

0 Comments found