Paramore

Paramore - Born For This guitar tab

Tabbed by Paramorefans.com

the verse is a little weird...it'll be fixed asap.

TUNED HALF A STEP DOWN in Drop D (Db, Ab, Db, Gb, Bb, eb)

INTRO GTR 1 : TWO TIMES

eb|------------------------------------------------------------|

Bb|--7^8-5---------------------5---5---------------------------|

Gb|--------7--4^-----6-6-6-6---6---6---------------------------|

Db|-------------- 7--------------------------------------------|

Ab|------------------------------------------------------------|

Db|------------------------------------------------------------|

INTRO GTR 2 : TWO TIMES

eb|---------------------------------------------------------------|

Bb|---------------------------------------------------------------|

Gb|---------------------------------------------------------------|

Db|--9-------7-------0-------2------------------------------------|

Ab|--9-x6---7-x6---0-x6---2-x6------------------------------------|

Db|--9-------7-------0-------2------------------------------------|

break before the first verse :

eb|-------------------------------------------|

Bb|-------------------------------------------|

Gb|-11--x8------------------------------------|

Db|---9--x8-----------------------------------|

Ab|-------------------------------------------|

Db|-------------------------------------------|

Verse 1: "oh no..... [play twice]

eb|-----------------------------------------------------------------------------------|

Bb|-----------------------------------------------------------------------------------|

Gb|-11--x8------9--x4-----6-x4----11--x8----9--x8-----6----x4-------------------------|

Db|---9--x8------7--x4----4-x4-----9--x8-----7--x8-----4----x4------------------------|

Ab|-----------------------------------------------------------------------------------|

Db|-----------------------------------------------------------------------------------|

VERSE OUTRO GTR 1 "... It takes acquired minds.."[guitar one plays this twice]

eb|--------------------------------------------------------------------------------------|

Bb|--------------------------------------------------------------------------------------|

Gb|--------------------------------------------------------------------------------------|

Db|---2~---9~---5~---2-2-x-2-2-x-2-2-x-2-2-x-2-2-x-7-7-x-7-7-x-7-7-x-7-7-x-7-7-x-9~x-----|

Ab|---2~---9~---5~---2-2-x-2-2-x-2-2-x-2-2-x-2-2-x-7-7-x-7-7-x-7-7-x-7-7-x-7-7-x-9~x-x---|

Db|---2~---9~---5~---2-2-x-2-2-x-2-2-x-2-2-x-2-2-x-7-7-x-7-7-x-7-7-x-7-7-x-7-7-x-9~x-----|

VERSE OUTRO GTR 2 ".. we just want!" (pretty sure its accurate)

ebl---------------------9---10--12--10--9-----------7-7p5-9-10-10s12--10p9--|

Bbl---12--10--12--12---x----x---x---x---x-----------------------------------|

Gbl---11--11--11--11---11--11--11--11--11-----------------------------------|

Dbl---9---9---9---9---------------------------------------------------------|

Abl-------------------------------------------------------------------------|

Dbl-------------------------------------------------------------------------|

CHORUS GTR 1 "Everybody sing.."

eb|--------------------------------------------------------|

Bb|--------------------------------------------------------|

Gb|--------------------------------------------------------|

Db|--5xxx--000--444--5xxx--999--777-----------5~-----------|

Ab|--5xxx--000--444--5xxx--999--777----(x2)---5~-----------|

Db|--5xxx--000--444--5xxx--999--777-----------5~-----------|

CHORUS GTR 2 "..sing!" comes in at open chord, listen for it

eb|--------------------------------------------------------|

Bb|--------------------------------------------------------|

Gb|--11-----9------7------11-----9------7------------------|

Db|--x--x8--x--x8--x--x1--x--x8--x--x8--x--x16--repeat etc-|

Ab|--9------7------5------9------7------5------------------|

Db|--------------------------------------------------------|

VERSE - [play twice]

eb|-----------------------------------------------------------------------------------|

Bb|-----------------------------------------------------------------------------------|

Gb|-11--x8------9--x4-----6-x4----11--x8----9--x8-----6----x4-------------------------|

Db|---9--x8------7--x4----4-x4-----9--x8-----7--x8-----4----x4------------------------|

Ab|-----------------------------------------------------------------------------------|

Db|-----------------------------------------------------------------------------------|

VERSE OUTRO GTR 1 "... It takes acquired minds.."[guitar one plays this twice]

eb|--------------------------------------------------------------------------------------|

Bb|--------------------------------------------------------------------------------------|

Gb|--------------------------------------------------------------------------------------|

Db|---2~---9~---5~---2-2-x-2-2-x-2-2-x-2-2-x-2-2-x-7-7-x-7-7-x-7-7-x-7-7-x-7-7-x-9~x-----|

Ab|---2~---9~---5~---2-2-x-2-2-x-2-2-x-2-2-x-2-2-x-7-7-x-7-7-x-7-7-x-7-7-x-7-7-x-9~x-x---|

Db|---2~---9~---5~---2-2-x-2-2-x-2-2-x-2-2-x-2-2-x-7-7-x-7-7-x-7-7-x-7-7-x-7-7-x-9~x-----|

VERSE OUTRO GTR 2 ".. we just want!" (pretty sure its accurate)

ebl---------------------9---10--12--10--9-----------7-7p5-9-10-10s12--10p9--|

Bbl---12--10--12--12---x----x---x---x---x-----------------------------------|

Gbl---11--11--11--11---11--11--11--11--11-----------------------------------|

Dbl---9---9---9---9---------------------------------------------------------|

Abl-------------------------------------------------------------------------|

Dbl-------------------------------------------------------------------------|

CHORUS GTR 1 "Everybody sing.."

eb|--------------------------------------------------------|

Bb|--------------------------------------------------------|

Gb|--------------------------------------------------------|

Db|--5xxx--000--444--5xxx--999--777------------------------|

Ab|--5xxx--000--444--5xxx--999--777----(x2)----------------|

Db|--5xxx--000--444--5xxx--999--777------------------------|

CHORUS GTR 2 "..sing!" comes in at open chord, listen for it

eb|--------------------------------------------------------|

Bb|--------------------------------------------------------|

Gb|--11-----9------7------11-----9------7------------------|

Db|--x--x8--x--x8--x--x1--x--x8--x--x8--x--x16--repeat etc-|

Ab|--9------7------5------9------7------5------------------|

Db|--------------------------------------------------------|

BACK TO INTRO

INTRO GTR 1 : TWO TIMES

eb|--------------------------------------------------------|

Bb|--7^8-5------------------5---5--------------------------|

Gb|--------7--4-----6-6-6-6---6---6------------------------|

Db|--------------7-----------------------------------------|

Ab|--------------------------------------------------------|

Db|--------------------------------------------------------|

INTRO GTR 2 : TWO TIMES

eb|--------------------------------------------------------|

Bb|--------------------------------------------------------|

Gb|--------------------------------------------------------|

Db|--9-----7-----0-----2-----------------------------------|

Ab|--9-x6--7-x6--0-x6--2-x6--------------------------------|

Db|--9-----7-----0-----2-----------------------------------|

BRIDGE: GTR 1 ".. alright so you think you're ready.."

eb|----------------------------------------------------------------------------------------|

Bb|----------------------------------------------------------------------------------------|

Gb|------------------------------------------------------------------------------19--------|

Db|---5~--7~--9-----------xxx2---xxx5~--7~--9~--xxx2--xxx5--xxx7--xxx5~---4------x--x16----|

Ab|---5~--7~--9slide back-xxx2---xxx5~--7~--9~--xxx2--xxx5--xxx7--xxx5~---4x12---17--------|

Db|---5~--7~--9-----------xxx2---xxx5~--7~--9~--xxx2--xxx5--xxx7--xxx5~---4----------------|

.

OUTRO: CHORUS -> BRIDGE.

Get this song at:  amazon.com sheetmusicplus.com

Share your thoughts

0 Comments found