Paramore

Paramore - Born For This Bass guitar tab

Paramore

Born For This

Riot

2007 Fueled by Rammen Records

Submitted by: webmaster at tabs-database.com.com

Tuning: Drop C#

Intro:

F#|------------------------------------|---|

C#|------------------------------------|---|

G#|-2-2-2-2--0-0-0-0-------------------|-2-|

C#|-------------------0-0-0-0--2-2-2-2-|---|

x2

Verses:

F#|------------------------------------------|

C#|------------------------2--2p0--0-4-2-0---|

G#|-0h2-------------0h2--2-----------------4-| (x2)

C#|-------0h5--0h4---------------------------|

Refrain:

F#|---------------------------------------------------------------|

C#|---------------------------------------------------------------|

G#|----------2-2-2-2-4h5------------------------0--0--0--0--2---2-|

C#|-2-2-2-2--------------5-5-5-5--2-0h2-0h2-0h2-------------------|

Chorus:

F#|--------------------------------------------------|

C#|--------------------------------------------------|

G#|----------------------------------2-2-2-2-0-0-0-0-|

C#|-0h5---5p0-0-0-0--0h4-4-4-4-0h5-------------------|

then

F#|---------------------------------------------------|

C#|---------------------------------------------------|

G#|---------------------------------2-2-2-2-0-0-0-0---|

C#|-5-5-5-5-0-0-0-0-4-4-4-4-5-5-5-5-----------------5-|

Bridge:

F#|------------------|------------------|

C#|------------------|------------------|

G#|------0----2------|------0-----------|

C#|-5--------------2-|-5---------5----4-|

x2Added by tabs-database.com and our distinguished partners

Get this song at:  amazon.com sheetmusicplus.com

Share your thoughts

0 Comments found