Paramore

Paramore - All We Know guitar tab

This is my very first tab ever so I really dont know if its

good or not and its not the whole song im trying to figure

out that slow part,

.-palm mute

*-regular harmonic

x-scratchy noise

/-slide down neck

Intro x2

----------------------------------------------------------|

----------------------------------------------------------|

----------------------------------------------------------|

--2--0--2----777777777777--2--0--2----xxxxxxxxxxxx--------|

--2--0--2----777777777777--2--0--2----xxxxxxxxxxxx--------|

--2--0--2----777777777777--2--0--2----xxxxxxxxxxxx--------|

------------------------------------|

------------------------------------|

-----------5-5555-5-5555-5555-------|

--2--0--2--5-5555-5-5555-5555-------|

--2--0--2--3-3333-3-3333-3333-------|

--2--0--2---------------------------|

1x

----------------------------------------------------------|

----------------------------------------------------------|

----------------------------------------------------------|

--2--0--2--777777777777-999-555555555555------------------|

--2--0--2--777777777777-999-555555555555------------------|

--2--0--2--777777777777-999-555555555555------------------|

............ ... ............

-------------------------------------|

-------------------------------------|

-----------5-5555-5-5555-------------|

--2--0--2--5-5555-5-5555-------------|

--2--0--2--3-3333-3-3333-------------|

--2--0--2----------------------------|

Chorus

------------------555555555555555-------------|

------------------555555555555555-------------|

------------------333333333333333-------------|

--0-222222222222------------------2--77--0--55| x2

--0-222222222222------------------2--77--0--55|

--0-222222222222------------------2--77--0--55|

---------------|

---------------|

---------------|

2222222222222--|

2222222222222--|

2222222222222--|

.............

Intro x2

----------------------------------------------------|

----------------------------------------------------|

----------------------------------------------------|

--2--0--2--777777777777-999-5555555555555555--------|

--2--0--2--777777777777-999-5555555555555555--------|

--2--0--2--777777777777-999-5555555555555555--------|

----------------------------------------|

----------------------------------------|

------------5-5555-5-5555-5555----------|

--2--0--2---5-5555-5-5555-5555----------|

--2--0--2---3-3333-3-3333-3333----------|

--2--0--2-------------------------------|

Chorus x2

-----|

-----|

-----|

2~---|

2~---|

2~---|

Clean

------------------------|

------------------------|

-5----9-----------------|

-5----9---10~-----------|

-3----7---10~-----------|x4

----------10~-----------|

-----------------|

-----------------|

-----------------|

00000000---------|

00000000---------|

00000000---------|

........

--------------------------------------------|

--------------------------------------------|

--55----5*----------------------------------|

--55-----------0-22--55--77-----------------|

--33-----------0-22--55--77-----------------|

---------------0-22--55--77-----------------|

second time 2nd guitar does the harmonic on the higher noteand first guitar does it the same.

--------------------------------------------|

--------5*----------------------------------|

--77----------------------------------------|

--77-----------0-22--111111-----------------|

--55-----------0-22--111111-----------------|

---------------0-22--111111-----------------|

during solo thing

-------------------------------------------------------------|

-------------------------------------------------------------|

55555555555555555555555--------------------------------------|

55555555555555555555555--22222222---5555555555555------------|

33333333333333333333333--22222222---5555555555555------------|

-------------------------22222222---5555555555555------------|

-------------------------------------------------------------|

-------------------------------------------------------------|

55555555555555555555555--------------------------------------|

55555555555555555555555--22222222---0000000000---------------|

33333333333333333333333--22222222---0000000000---------------|

-------------------------22222222---0000000000---------------|

----------------------------|

----------------------------|

-5-5555-55-5-55555-55-------|

-5-5555-55-5-55555-55-------|

-3-3333-33-3-33333-33-------|

----------------------------|

Chorusx2

End on

---|

---|

---|

2/-|

2/-|

2/-|

This was my first tab and i will get the solo thing later please rate it .Added by tabs-database.com and our distinguished partners

Get this song at:  amazon.com sheetmusicplus.com

Share your thoughts

0 Comments found